  0
SECTION
  2
HEADER
  9
$ACADVER
  1
AC1015
  9
$ACADMAINTVER
 70
     6
  9
$DWGCODEPAGE
  3
ANSI_1254
  9
$INSBASE
 10
0.0
 20
0.0
 30
0.0
  9
$EXTMIN
 10
0.0
 20
0.0
 30
0.0
  9
$EXTMAX
 10
279.4
 20
215.9
 30
0.0
  9
$LIMMIN
 10
0.0
 20
0.0
  9
$LIMMAX
 10
279.4
 20
215.9
  9
$ORTHOMODE
 70
     0
  9
$REGENMODE
 70
     1
  9
$FILLMODE
 70
     1
  9
$QTEXTMODE
 70
     0
  9
$MIRRTEXT
 70
     1
  9
$LTSCALE
 40
1.0
  9
$ATTMODE
 70
     1
  9
$TEXTSIZE
 40
3.5
  9
$TRACEWID
 40
1.0
  9
$TEXTSTYLE
  7
Standard
  9
$CLAYER
  8
0
  9
$CELTYPE
  6
ByLayer
  9
$CECOLOR
 62
   256
  9
$CELTSCALE
 40
1.0
  9
$DISPSILH
 70
     0
  9
$DIMSCALE
 40
1.0
  9
$DIMASZ
 40
3.5
  9
$DIMEXO
 40
1.0
  9
$DIMDLI
 40
3.75
  9
$DIMRND
 40
0.0
  9
$DIMDLE
 40
0.0
  9
$DIMEXE
 40
1.0
  9
$DIMTP
 40
0.0
  9
$DIMTM
 40
0.0
  9
$DIMTXT
 40
3.5
  9
$DIMCEN
 40
2.5
  9
$DIMTSZ
 40
0.0
  9
$DIMTOL
 70
     0
  9
$DIMLIM
 70
     0
  9
$DIMTIH
 70
     1
  9
$DIMTOH
 70
     1
  9
$DIMSE1
 70
     0
  9
$DIMSE2
 70
     0
  9
$DIMTAD
 70
     1
  9
$DIMZIN
 70
     0
  9
$DIMBLK
  1

  9
$DIMASO
 70
     1
  9
$DIMSHO
 70
     1
  9
$DIMPOST
  1

  9
$DIMAPOST
  1

  9
$DIMALT
 70
     0
  9
$DIMALTD
 70
     3
  9
$DIMALTF
 40
0.0393700787
  9
$DIMLFAC
 40
1.0
  9
$DIMTOFL
 70
     1
  9
$DIMTVP
 40
0.0
  9
$DIMTIX
 70
     0
  9
$DIMSOXD
 70
     0
  9
$DIMSAH
 70
     0
  9
$DIMBLK1
  1

  9
$DIMBLK2
  1

  9
$DIMSTYLE
  2
ISO-25
  9
$DIMCLRD
 70
     0
  9
$DIMCLRE
 70
     0
  9
$DIMCLRT
 70
     0
  9
$DIMTFAC
 40
1.0
  9
$DIMGAP
 40
1.524
  9
$DIMJUST
 70
     0
  9
$DIMSD1
 70
     0
  9
$DIMSD2
 70
     0
  9
$DIMTOLJ
 70
     0
  9
$DIMTZIN
 70
     0
  9
$DIMALTZ
 70
     0
  9
$DIMALTTZ
 70
     0
  9
$DIMUPT
 70
     0
  9
$DIMDEC
 70
     2
  9
$DIMTDEC
 70
     2
  9
$DIMALTU
 70
     2
  9
$DIMALTTD
 70
     3
  9
$DIMTXSTY
  7
Standard
  9
$DIMAUNIT
 70
     0
  9
$DIMADEC
 70
     2
  9
$DIMALTRND
 40
0.0
  9
$DIMAZIN
 70
     0
  9
$DIMDSEP
 70
    44
  9
$DIMATFIT
 70
     3
  9
$DIMFRAC
 70
     0
  9
$DIMLDRBLK
  1

  9
$DIMLUNIT
 70
     2
  9
$DIMLWD
 70
    -2
  9
$DIMLWE
 70
    -2
  9
$DIMTMOVE
 70
     0
  9
$LUNITS
 70
     2
  9
$LUPREC
 70
     2
  9
$SKETCHINC
 40
1.0
  9
$FILLETRAD
 40
10.0
  9
$AUNITS
 70
     0
  9
$AUPREC
 70
     2
  9
$MENU
  1
.
  9
$ELEVATION
 40
0.0
  9
$PELEVATION
 40
0.0
  9
$THICKNESS
 40
0.0
  9
$LIMCHECK
 70
     0
  9
$CHAMFERA
 40
0.0
  9
$CHAMFERB
 40
0.0
  9
$CHAMFERC
 40
0.0
  9
$CHAMFERD
 40
0.0
  9
$SKPOLY
 70
     0
  9
$TDCREATE
 40
2459741.58873853
  9
$TDUCREATE
 40
2459741.46373853
  9
$TDUPDATE
 40
2459741.588740856
  9
$TDUUPDATE
 40
2459741.463740856
  9
$TDINDWG
 40
0.0000000116
  9
$TDUSRTIMER
 40
0.0000000116
  9
$USRTIMER
 70
     1
  9
$ANGBASE
 50
0.0
  9
$ANGDIR
 70
     0
  9
$PDMODE
 70
     0
  9
$PDSIZE
 40
-1.0
  9
$PLINEWID
 40
0.0
  9
$SPLFRAME
 70
     0
  9
$SPLINETYPE
 70
     6
  9
$SPLINESEGS
 70
     8
  9
$HANDSEED
  5
1C8
  9
$SURFTAB1
 70
     6
  9
$SURFTAB2
 70
     6
  9
$SURFTYPE
 70
     6
  9
$SURFU
 70
     6
  9
$SURFV
 70
     6
  9
$UCSBASE
  2

  9
$UCSNAME
  2

  9
$UCSORG
 10
0.0
 20
0.0
 30
0.0
  9
$UCSXDIR
 10
1.0
 20
0.0
 30
0.0
  9
$UCSYDIR
 10
0.0
 20
1.0
 30
0.0
  9
$UCSORTHOREF
  2

  9
$UCSORTHOVIEW
 70
     0
  9
$UCSORGTOP
 10
0.0
 20
0.0
 30
0.0
  9
$UCSORGBOTTOM
 10
0.0
 20
0.0
 30
0.0
  9
$UCSORGLEFT
 10
0.0
 20
0.0
 30
0.0
  9
$UCSORGRIGHT
 10
0.0
 20
0.0
 30
0.0
  9
$UCSORGFRONT
 10
0.0
 20
0.0
 30
0.0
  9
$UCSORGBACK
 10
0.0
 20
0.0
 30
0.0
  9
$PUCSBASE
  2

  9
$PUCSNAME
  2

  9
$PUCSORG
 10
0.0
 20
0.0
 30
0.0
  9
$PUCSXDIR
 10
1.0
 20
0.0
 30
0.0
  9
$PUCSYDIR
 10
0.0
 20
1.0
 30
0.0
  9
$PUCSORTHOREF
  2

  9
$PUCSORTHOVIEW
 70
     0
  9
$PUCSORGTOP
 10
0.0
 20
0.0
 30
0.0
  9
$PUCSORGBOTTOM
 10
0.0
 20
0.0
 30
0.0
  9
$PUCSORGLEFT
 10
0.0
 20
0.0
 30
0.0
  9
$PUCSORGRIGHT
 10
0.0
 20
0.0
 30
0.0
  9
$PUCSORGFRONT
 10
0.0
 20
0.0
 30
0.0
  9
$PUCSORGBACK
 10
0.0
 20
0.0
 30
0.0
  9
$USERI1
 70
     0
  9
$USERI2
 70
     0
  9
$USERI3
 70
     0
  9
$USERI4
 70
     0
  9
$USERI5
 70
     0
  9
$USERR1
 40
0.0
  9
$USERR2
 40
0.0
  9
$USERR3
 40
0.0
  9
$USERR4
 40
0.0
  9
$USERR5
 40
0.0
  9
$WORLDVIEW
 70
     1
  9
$SHADEDGE
 70
     3
  9
$SHADEDIF
 70
    70
  9
$TILEMODE
 70
     1
  9
$MAXACTVP
 70
    64
  9
$PINSBASE
 10
0.0
 20
0.0
 30
0.0
  9
$PLIMCHECK
 70
     0
  9
$PEXTMIN
 10
1.0000000000E+20
 20
1.0000000000E+20
 30
1.0000000000E+20
  9
$PEXTMAX
 10
-1.0000000000E+20
 20
-1.0000000000E+20
 30
-1.0000000000E+20
  9
$PLIMMIN
 10
0.0
 20
0.0
  9
$PLIMMAX
 10
420.0
 20
297.0
  9
$UNITMODE
 70
     0
  9
$VISRETAIN
 70
     1
  9
$PLINEGEN
 70
     0
  9
$PSLTSCALE
 70
     1
  9
$TREEDEPTH
 70
  3020
  9
$CMLSTYLE
  2
Standard
  9
$CMLJUST
 70
     0
  9
$CMLSCALE
 40
20.0
  9
$PROXYGRAPHICS
 70
     1
  9
$MEASUREMENT
 70
     1
  9
$CELWEIGHT
370
    -1
  9
$ENDCAPS
280
     0
  9
$JOINSTYLE
280
     0
  9
$LWDISPLAY
290
     1
  9
$INSUNITS
 70
     4
  9
$HYPERLINKBASE
  1

  9
$STYLESHEET
  1

  9
$XEDIT
290
     1
  9
$CEPSNTYPE
380
     0
  9
$PSTYLEMODE
290
     1
  9
$FINGERPRINTGUID
  2
{883fe1c9-f862-4e78-8a6b-250141df1ca4}
  9
$VERSIONGUID
  2
{FAEB1C32-E019-11D5-929B-00C0DF256EC4}
  9
$EXTNAMES
290
     1
  9
$PSVPSCALE
 40
0.0
  9
$OLESTARTUP
290
     0
  0
ENDSEC
  0
SECTION
  2
CLASSES
  0
CLASS
  1
ACDBDICTIONARYWDFLT
  2
AcDbDictionaryWithDefault
  3
ObjectDBX Classes
 90
        0
280
     0
281
     0
  0
CLASS
  1
VISUALSTYLE
  2
AcDbVisualStyle
  3
ObjectDBX Classes
 90
     4095
280
     0
281
     0
  0
CLASS
  1
MATERIAL
  2
AcDbMaterial
  3
ObjectDBX Classes
 90
     1153
280
     0
281
     0
  0
CLASS
  1
SCALE
  2
AcDbScale
  3
ObjectDBX Classes
 90
     1153
280
     0
281
     0
  0
CLASS
  1
TABLESTYLE
  2
AcDbTableStyle
  3
ObjectDBX Classes
 90
     4095
280
     0
281
     0
  0
CLASS
  1
MLEADERSTYLE
  2
AcDbMLeaderStyle
  3
ACDB_MLEADERSTYLE_CLASS
 90
     4095
280
     0
281
     0
  0
CLASS
  1
SUN
  2
AcDbSun
  3
SCENEOE
 90
     1153
280
     0
281
     0
  0
CLASS
  1
ACDBPLACEHOLDER
  2
AcDbPlaceHolder
  3
ObjectDBX Classes
 90
        0
280
     0
281
     0
  0
CLASS
  1
LAYOUT
  2
AcDbLayout
  3
ObjectDBX Classes
 90
        0
280
     0
281
     0
  0
ENDSEC
  0
SECTION
  2
TABLES
  0
TABLE
  2
VPORT
  5
8
330
0
100
AcDbSymbolTable
 70
     1
  0
VPORT
  5
29
330
8
100
AcDbSymbolTableRecord
100
AcDbViewportTableRecord
  2
*Active
 70
     0
 10
0.0
 20
0.0
 11
1.0
 21
1.0
 12
139.7
 22
107.95
 13
0.0
 23
0.0
 14
10.0
 24
10.0
 15
10.0
 25
10.0
 16
0.0
 26
0.0
 36
1.0
 17
0.0
 27
0.0
 37
0.0
 40
215.9
 41
1.2941176471
 42
50.0
 43
0.0
 44
0.0
 50
0.0
 51
0.0
 71
     0
 72
  2000
 73
     1
 74
     3
 75
     0
 76
     0
 77
     0
 78
     0
281
     0
 65
     1
110
0.0
120
0.0
130
0.0
111
1.0
121
0.0
131
0.0
112
0.0
122
1.0
132
0.0
 79
     0
146
0.0
  0
ENDTAB
  0
TABLE
  2
LTYPE
  5
5
330
0
100
AcDbSymbolTable
 70
     6
  0
LTYPE
  5
14
330
5
100
AcDbSymbolTableRecord
100
AcDbLinetypeTableRecord
  2
ByBlock
 70
     0
  3

 72
    65
 73
     0
 40
0.0
  0
LTYPE
  5
15
330
5
100
AcDbSymbolTableRecord
100
AcDbLinetypeTableRecord
  2
ByLayer
 70
     0
  3

 72
    65
 73
     0
 40
0.0
  0
LTYPE
  5
16
330
5
100
AcDbSymbolTableRecord
100
AcDbLinetypeTableRecord
  2
Continuous
 70
     0
  3
Solid line
 72
    65
 73
     0
 40
0.0
  0
LTYPE
  5
6E
330
5
100
AcDbSymbolTableRecord
100
AcDbLinetypeTableRecord
  2
HIDDEN
 70
     0
  3
Hidden __ __ __ __ __ __ __ __ __ __ __ __ __ __
 72
    65
 73
     2
 40
1.905
 49
1.27
 74
     0
 49
-0.635
 74
     0
  0
LTYPE
  5
6F
330
5
100
AcDbSymbolTableRecord
100
AcDbLinetypeTableRecord
  2
PHANTOM
 70
     0
  3
Phantom ______  __  __  ______  __  __  ______
 72
    65
 73
     6
 40
12.7
 49
6.35
 74
     0
 49
-1.27
 74
     0
 49
1.27
 74
     0
 49
-1.27
 74
     0
 49
1.27
 74
     0
 49
-1.27
 74
     0
  0
LTYPE
  5
70
330
5
100
AcDbSymbolTableRecord
100
AcDbLinetypeTableRecord
  2
CENTER
 70
     0
  3
Center ____ _ ____ _ ____ _ ____ _ ____ _ ____
 72
    65
 73
     4
 40
10.16
 49
6.35
 74
     0
 49
-1.27
 74
     0
 49
1.27
 74
     0
 49
-1.27
 74
     0
  0
LTYPE
  5
71
330
5
100
AcDbSymbolTableRecord
100
AcDbLinetypeTableRecord
  2
CENTERX2
 70
     0
  3
Center (2x) ________  __  ________  __  _____
 72
    65
 73
     4
 40
20.32
 49
12.7
 74
     0
 49
-2.54
 74
     0
 49
2.54
 74
     0
 49
-2.54
 74
     0
  0
LTYPE
  5
72
330
5
100
AcDbSymbolTableRecord
100
AcDbLinetypeTableRecord
  2
DOT2
 70
     0
  3
Dot (.5x) ........................................
 72
    65
 73
     2
 40
0.635
 49
0.0
 74
     0
 49
-0.635
 74
     0
  0
ENDTAB
  0
TABLE
  2
LAYER
  5
2
330
0
100
AcDbSymbolTable
 70
    17
  0
LAYER
  5
10
330
2
100
AcDbSymbolTableRecord
100
AcDbLayerTableRecord
  2
0
 70
     0
 62
     7
  6
Continuous
370
    -3
390
F
  0
LAYER
  5
73
330
2
100
AcDbSymbolTableRecord
100
AcDbLayerTableRecord
  2
FORMAT
 70
     0
 62
     7
  6
Continuous
370
    -3
390
F
  0
LAYER
  5
74
330
2
100
AcDbSymbolTableRecord
100
AcDbLayerTableRecord
  2
YARDIMCI_GEOMETRI
 70
     0
 62
    -6
  6
Continuous
290
     0
370
    -3
390
F
  0
LAYER
  5
75
330
2
100
AcDbSymbolTableRecord
100
AcDbLayerTableRecord
  2
SAYFA_CERCEVESI
 70
     0
 62
     7
  6
Continuous
370
    25
390
F
  0
LAYER
  5
76
330
2
100
AcDbSymbolTableRecord
100
AcDbLayerTableRecord
  2
ANTET
 70
     0
 62
     7
  6
Continuous
370
    -3
390
F
  0
LAYER
  5
77
330
2
100
AcDbSymbolTableRecord
100
AcDbLayerTableRecord
  2
OLCU
 70
     0
 62
   150
  6
Continuous
370
    -3
390
F
  0
LAYER
  5
78
330
2
100
AcDbSymbolTableRecord
100
AcDbLayerTableRecord
  2
METIN
 70
     0
 62
    96
  6
Continuous
370
    -3
390
F
  0
LAYER
  5
79
330
2
100
AcDbSymbolTableRecord
100
AcDbLayerTableRecord
  2
BALON
 70
     0
 62
     5
  6
Continuous
370
    -3
390
F
  0
LAYER
  5
7A
330
2
100
AcDbSymbolTableRecord
100
AcDbLayerTableRecord
  2
VURGU
 70
     0
 62
     7
  6
Continuous
370
    -3
390
F
  0
LAYER
  5
7B
330
2
100
AcDbSymbolTableRecord
100
AcDbLayerTableRecord
  2
SILIK
 70
     0
 62
     7
  6
Continuous
370
    -3
390
F
  0
LAYER
  5
7C
330
2
100
AcDbSymbolTableRecord
100
AcDbLayerTableRecord
  2
MODEL
 70
     0
 62
     7
  6
Continuous
370
    -3
390
F
  0
LAYER
  5
7D
330
2
100
AcDbSymbolTableRecord
100
AcDbLayerTableRecord
  2
DETAYLANDıRMA
 70
     0
 62
   190
  6
Continuous
370
    -3
390
F
  0
LAYER
  5
7E
330
2
100
AcDbSymbolTableRecord
100
AcDbLayerTableRecord
  2
TOLERANS
 70
     0
 62
   230
  6
Continuous
370
    -3
390
F
  0
LAYER
  5
7F
330
2
100
AcDbSymbolTableRecord
100
AcDbLayerTableRecord
  2
MERKEZ_CIZGILERI
 70
     0
 62
    30
  6
Continuous
370
    -3
390
F
  0
LAYER
  5
80
330
2
100
AcDbSymbolTableRecord
100
AcDbLayerTableRecord
  2
KESIT-DETAY_CIZGILERI
 70
     0
 62
     7
  6
Continuous
370
    -3
390
F
  0
LAYER
  5
81
330
2
100
AcDbSymbolTableRecord
100
AcDbLayerTableRecord
  2
\U+041E\U+0421\U+0415\U+0412\U+042B\U+0415
 70
     0
 62
     7
  6
Continuous
370
    -3
390
F
  0
LAYER
  5
82
330
2
100
AcDbSymbolTableRecord
100
AcDbLayerTableRecord
  2
\U+0412\U+041E\U+0414\U+042F\U+041D\U+042B\U+0415_\U+0417\U+041D\U+0410\U+041A\U+0418
 70
     0
 62
    11
  6
Continuous
370
    -3
390
F
  0
ENDTAB
  0
TABLE
  2
STYLE
  5
3
330
0
100
AcDbSymbolTable
 70
     1
  0
STYLE
  5
11
330
3
100
AcDbSymbolTableRecord
100
AcDbTextStyleTableRecord
  2
Standard
 70
     0
 40
0.0
 41
1.0
 50
0.0
 71
     0
 42
3.5
  3
txt
  4

  0
ENDTAB
  0
TABLE
  2
VIEW
  5
6
330
0
100
AcDbSymbolTable
 70
     0
  0
ENDTAB
  0
TABLE
  2
UCS
  5
7
330
0
100
AcDbSymbolTable
 70
     0
  0
ENDTAB
  0
TABLE
  2
APPID
  5
9
330
0
100
AcDbSymbolTable
 70
     1
  0
APPID
  5
12
330
9
100
AcDbSymbolTableRecord
100
AcDbRegAppTableRecord
  2
ACAD
 70
     0
  0
ENDTAB
  0
TABLE
  2
DIMSTYLE
  5
A
330
0
100
AcDbSymbolTable
 70
     1
100
AcDbDimStyleTable
  0
DIMSTYLE
105
27
330
A
100
AcDbSymbolTableRecord
100
AcDbDimStyleTableRecord
  2
ISO-25
 70
     0
 41
2.5
 42
0.625
 43
3.75
 44
1.25
 73
     0
 74
     0
 77
     1
 78
     8
140
2.5
141
2.5
143
0.0393700787
147
0.625
171
     3
172
     1
178
     0
271
     2
272
     2
274
     3
278
    44
283
     0
284
     8
340
11
  0
ENDTAB
  0
TABLE
  2
BLOCK_RECORD
  5
1
330
0
100
AcDbSymbolTable
 70
    14
  0
BLOCK_RECORD
  5
1F
330
1
100
AcDbSymbolTableRecord
100
AcDbBlockTableRecord
  2
*Model_Space
340
22
  0
BLOCK_RECORD
  5
1B
330
1
100
AcDbSymbolTableRecord
100
AcDbBlockTableRecord
  2
*Paper_Space
340
1E
  0
BLOCK_RECORD
  5
23
330
1
100
AcDbSymbolTableRecord
100
AcDbBlockTableRecord
  2
*Paper_Space0
340
26
  0
BLOCK_RECORD
  5
9F
330
1
100
AcDbSymbolTableRecord
100
AcDbBlockTableRecord
  2
SW_CENTERMARKSYMBOL_0
340
0
102
{BLKREFS
331
AA
102
}
  0
BLOCK_RECORD
  5
AB
330
1
100
AcDbSymbolTableRecord
100
AcDbBlockTableRecord
  2
SW_CENTERMARKSYMBOL_1
340
0
102
{BLKREFS
331
B6
102
}
  0
BLOCK_RECORD
  5
B7
330
1
100
AcDbSymbolTableRecord
100
AcDbBlockTableRecord
  2
SW_CENTERMARKSYMBOL_2
340
0
102
{BLKREFS
331
C2
102
}
  0
BLOCK_RECORD
  5
C3
330
1
100
AcDbSymbolTableRecord
100
AcDbBlockTableRecord
  2
SW_CENTERMARKSYMBOL_3
340
0
102
{BLKREFS
331
CE
102
}
  0
BLOCK_RECORD
  5
CF
330
1
100
AcDbSymbolTableRecord
100
AcDbBlockTableRecord
  2
SW_CENTERMARKSYMBOL_4
340
0
102
{BLKREFS
331
DA
102
}
  0
BLOCK_RECORD
  5
DB
330
1
100
AcDbSymbolTableRecord
100
AcDbBlockTableRecord
  2
SW_CENTERMARKSYMBOL_5
340
0
102
{BLKREFS
331
E6
102
}
  0
BLOCK_RECORD
  5
E7
330
1
100
AcDbSymbolTableRecord
100
AcDbBlockTableRecord
  2
SW_CENTERMARKSYMBOL_6
340
0
102
{BLKREFS
331
F2
102
}
  0
BLOCK_RECORD
  5
F3
330
1
100
AcDbSymbolTableRecord
100
AcDbBlockTableRecord
  2
SW_CENTERMARKSYMBOL_7
340
0
102
{BLKREFS
331
FE
102
}
  0
BLOCK_RECORD
  5
FF
330
1
100
AcDbSymbolTableRecord
100
AcDbBlockTableRecord
  2
SW_CENTERMARKSYMBOL_8
340
0
102
{BLKREFS
331
10A
102
}
  0
BLOCK_RECORD
  5
10B
330
1
100
AcDbSymbolTableRecord
100
AcDbBlockTableRecord
  2
SW_CENTERMARKSYMBOL_9
340
0
102
{BLKREFS
331
116
102
}
  0
BLOCK_RECORD
  5
117
330
1
100
AcDbSymbolTableRecord
100
AcDbBlockTableRecord
  2
SW_CENTERMARKSYMBOL_10
340
0
102
{BLKREFS
331
122
102
}
  0
BLOCK_RECORD
  5
123
330
1
100
AcDbSymbolTableRecord
100
AcDbBlockTableRecord
  2
SW_CENTERMARKSYMBOL_11
340
0
102
{BLKREFS
331
12E
102
}
  0
BLOCK_RECORD
  5
12F
330
1
100
AcDbSymbolTableRecord
100
AcDbBlockTableRecord
  2
SW_CENTERMARKSYMBOL_12
340
0
102
{BLKREFS
331
13A
102
}
  0
ENDTAB
  0
ENDSEC
  0
SECTION
  2
BLOCKS
  0
BLOCK
  5
20
330
1F
100
AcDbEntity
  8
0
100
AcDbBlockBegin
  2
*Model_Space
 70
     0
 10
0.0
 20
0.0
 30
0.0
  3
*Model_Space
  1

  0
ENDBLK
  5
21
330
1F
100
AcDbEntity
  8
0
100
AcDbBlockEnd
  0
BLOCK
  5
1C
330
1B
100
AcDbEntity
 67
     1
  8
0
100
AcDbBlockBegin
  2
*Paper_Space
 70
     0
 10
0.0
 20
0.0
 30
0.0
  3
*Paper_Space
  1

  0
ENDBLK
  5
1D
330
1B
100
AcDbEntity
 67
     1
  8
0
100
AcDbBlockEnd
  0
BLOCK
  5
24
330
23
100
AcDbEntity
  8
0
100
AcDbBlockBegin
  2
*Paper_Space0
 70
     0
 10
0.0
 20
0.0
 30
0.0
  3
*Paper_Space0
  1

  0
ENDBLK
  5
25
330
23
100
AcDbEntity
  8
0
100
AcDbBlockEnd
  0
BLOCK
  5
A0
330
9F
100
AcDbEntity
  8
0
100
AcDbBlockBegin
  2
SW_CENTERMARKSYMBOL_0
 70
     0
 10
0.0
 20
0.0
 30
0.0
  3
SW_CENTERMARKSYMBOL_0
  1

  0
LINE
  5
A2
330
9F
100
AcDbEntity
  8
FORMAT
 62
     0
100
AcDbLine
 10
0.0
 20
0.0
 30
0.0
 11
0.0
 21
2.5
 31
0.0
  0
LINE
  5
A3
330
9F
100
AcDbEntity
  8
FORMAT
 62
     0
100
AcDbLine
 10
0.0
 20
0.0
 30
0.0
 11
-2.5
 21
0.0
 31
0.0
  0
LINE
  5
A4
330
9F
100
AcDbEntity
  8
FORMAT
 62
     0
100
AcDbLine
 10
0.0
 20
0.0
 30
0.0
 11
0.0
 21
-2.5
 31
0.0
  0
LINE
  5
A5
330
9F
100
AcDbEntity
  8
FORMAT
 62
     0
100
AcDbLine
 10
0.0
 20
0.0
 30
0.0
 11
2.5
 21
0.0
 31
0.0
  0
LINE
  5
A6
330
9F
100
AcDbEntity
  8
FORMAT
 62
     0
100
AcDbLine
 10
0.0
 20
5.0
 30
0.0
 11
0.0
 21
246.0
 31
0.0
  0
LINE
  5
A7
330
9F
100
AcDbEntity
  8
FORMAT
 62
     0
100
AcDbLine
 10
-5.0
 20
0.0
 30
0.0
 11
-246.0
 21
0.0
 31
0.0
  0
LINE
  5
A8
330
9F
100
AcDbEntity
  8
FORMAT
 62
     0
100
AcDbLine
 10
0.0
 20
-5.0
 30
0.0
 11
0.0
 21
-246.0
 31
0.0
  0
LINE
  5
A9
330
9F
100
AcDbEntity
  8
FORMAT
 62
     0
100
AcDbLine
 10
5.0
 20
0.0
 30
0.0
 11
246.0
 21
0.0
 31
0.0
  0
ENDBLK
  5
A1
330
9F
100
AcDbEntity
  8
0
100
AcDbBlockEnd
  0
BLOCK
  5
AC
330
AB
100
AcDbEntity
  8
0
100
AcDbBlockBegin
  2
SW_CENTERMARKSYMBOL_1
 70
     0
 10
0.0
 20
0.0
 30
0.0
  3
SW_CENTERMARKSYMBOL_1
  1

  0
LINE
  5
AE
330
AB
100
AcDbEntity
  8
FORMAT
 62
     0
100
AcDbLine
 10
0.0
 20
0.0
 30
0.0
 11
0.0
 21
2.5
 31
0.0
  0
LINE
  5
AF
330
AB
100
AcDbEntity
  8
FORMAT
 62
     0
100
AcDbLine
 10
0.0
 20
0.0
 30
0.0
 11
-2.5
 21
0.0
 31
0.0
  0
LINE
  5
B0
330
AB
100
AcDbEntity
  8
FORMAT
 62
     0
100
AcDbLine
 10
0.0
 20
0.0
 30
0.0
 11
0.0
 21
-2.5
 31
0.0
  0
LINE
  5
B1
330
AB
100
AcDbEntity
  8
FORMAT
 62
     0
100
AcDbLine
 10
0.0
 20
0.0
 30
0.0
 11
2.5
 21
0.0
 31
0.0
  0
LINE
  5
B2
330
AB
100
AcDbEntity
  8
FORMAT
 62
     0
100
AcDbLine
 10
0.0
 20
5.0
 30
0.0
 11
0.0
 21
15.0
 31
0.0
  0
LINE
  5
B3
330
AB
100
AcDbEntity
  8
FORMAT
 62
     0
100
AcDbLine
 10
-5.0
 20
0.0
 30
0.0
 11
-15.0
 21
0.0
 31
0.0
  0
LINE
  5
B4
330
AB
100
AcDbEntity
  8
FORMAT
 62
     0
100
AcDbLine
 10
0.0
 20
-5.0
 30
0.0
 11
0.0
 21
-15.0
 31
0.0
  0
LINE
  5
B5
330
AB
100
AcDbEntity
  8
FORMAT
 62
     0
100
AcDbLine
 10
5.0
 20
0.0
 30
0.0
 11
15.0
 21
0.0
 31
0.0
  0
ENDBLK
  5
AD
330
AB
100
AcDbEntity
  8
0
100
AcDbBlockEnd
  0
BLOCK
  5
B8
330
B7
100
AcDbEntity
  8
0
100
AcDbBlockBegin
  2
SW_CENTERMARKSYMBOL_2
 70
     0
 10
0.0
 20
0.0
 30
0.0
  3
SW_CENTERMARKSYMBOL_2
  1

  0
LINE
  5
BA
330
B7
100
AcDbEntity
  8
FORMAT
 62
     0
100
AcDbLine
 10
0.0
 20
0.0
 30
0.0
 11
0.0
 21
2.5
 31
0.0
  0
LINE
  5
BB
330
B7
100
AcDbEntity
  8
FORMAT
 62
     0
100
AcDbLine
 10
0.0
 20
0.0
 30
0.0
 11
-2.5
 21
0.0
 31
0.0
  0
LINE
  5
BC
330
B7
100
AcDbEntity
  8
FORMAT
 62
     0
100
AcDbLine
 10
0.0
 20
0.0
 30
0.0
 11
0.0
 21
-2.5
 31
0.0
  0
LINE
  5
BD
330
B7
100
AcDbEntity
  8
FORMAT
 62
     0
100
AcDbLine
 10
0.0
 20
0.0
 30
0.0
 11
2.5
 21
0.0
 31
0.0
  0
LINE
  5
BE
330
B7
100
AcDbEntity
  8
FORMAT
 62
     0
100
AcDbLine
 10
0.0
 20
5.0
 30
0.0
 11
0.0
 21
15.0
 31
0.0
  0
LINE
  5
BF
330
B7
100
AcDbEntity
  8
FORMAT
 62
     0
100
AcDbLine
 10
-5.0
 20
0.0
 30
0.0
 11
-15.0
 21
0.0
 31
0.0
  0
LINE
  5
C0
330
B7
100
AcDbEntity
  8
FORMAT
 62
     0
100
AcDbLine
 10
0.0
 20
-5.0
 30
0.0
 11
0.0
 21
-15.0
 31
0.0
  0
LINE
  5
C1
330
B7
100
AcDbEntity
  8
FORMAT
 62
     0
100
AcDbLine
 10
5.0
 20
0.0
 30
0.0
 11
15.0
 21
0.0
 31
0.0
  0
ENDBLK
  5
B9
330
B7
100
AcDbEntity
  8
0
100
AcDbBlockEnd
  0
BLOCK
  5
C4
330
C3
100
AcDbEntity
  8
0
100
AcDbBlockBegin
  2
SW_CENTERMARKSYMBOL_3
 70
     0
 10
0.0
 20
0.0
 30
0.0
  3
SW_CENTERMARKSYMBOL_3
  1

  0
LINE
  5
C6
330
C3
100
AcDbEntity
  8
FORMAT
 62
     0
100
AcDbLine
 10
0.0
 20
0.0
 30
0.0
 11
0.0
 21
2.5
 31
0.0
  0
LINE
  5
C7
330
C3
100
AcDbEntity
  8
FORMAT
 62
     0
100
AcDbLine
 10
0.0
 20
0.0
 30
0.0
 11
-2.5
 21
0.0
 31
0.0
  0
LINE
  5
C8
330
C3
100
AcDbEntity
  8
FORMAT
 62
     0
100
AcDbLine
 10
0.0
 20
0.0
 30
0.0
 11
0.0
 21
-2.5
 31
0.0
  0
LINE
  5
C9
330
C3
100
AcDbEntity
  8
FORMAT
 62
     0
100
AcDbLine
 10
0.0
 20
0.0
 30
0.0
 11
2.5
 21
0.0
 31
0.0
  0
LINE
  5
CA
330
C3
100
AcDbEntity
  8
FORMAT
 62
     0
100
AcDbLine
 10
0.0
 20
5.0
 30
0.0
 11
0.0
 21
15.0
 31
0.0
  0
LINE
  5
CB
330
C3
100
AcDbEntity
  8
FORMAT
 62
     0
100
AcDbLine
 10
-5.0
 20
0.0
 30
0.0
 11
-15.0
 21
0.0
 31
0.0
  0
LINE
  5
CC
330
C3
100
AcDbEntity
  8
FORMAT
 62
     0
100
AcDbLine
 10
0.0
 20
-5.0
 30
0.0
 11
0.0
 21
-15.0
 31
0.0
  0
LINE
  5
CD
330
C3
100
AcDbEntity
  8
FORMAT
 62
     0
100
AcDbLine
 10
5.0
 20
0.0
 30
0.0
 11
15.0
 21
0.0
 31
0.0
  0
ENDBLK
  5
C5
330
C3
100
AcDbEntity
  8
0
100
AcDbBlockEnd
  0
BLOCK
  5
D0
330
CF
100
AcDbEntity
  8
0
100
AcDbBlockBegin
  2
SW_CENTERMARKSYMBOL_4
 70
     0
 10
0.0
 20
0.0
 30
0.0
  3
SW_CENTERMARKSYMBOL_4
  1

  0
LINE
  5
D2
330
CF
100
AcDbEntity
  8
FORMAT
 62
     0
100
AcDbLine
 10
0.0
 20
0.0
 30
0.0
 11
0.0
 21
2.5
 31
0.0
  0
LINE
  5
D3
330
CF
100
AcDbEntity
  8
FORMAT
 62
     0
100
AcDbLine
 10
0.0
 20
0.0
 30
0.0
 11
-2.5
 21
0.0
 31
0.0
  0
LINE
  5
D4
330
CF
100
AcDbEntity
  8
FORMAT
 62
     0
100
AcDbLine
 10
0.0
 20
0.0
 30
0.0
 11
0.0
 21
-2.5
 31
0.0
  0
LINE
  5
D5
330
CF
100
AcDbEntity
  8
FORMAT
 62
     0
100
AcDbLine
 10
0.0
 20
0.0
 30
0.0
 11
2.5
 21
0.0
 31
0.0
  0
LINE
  5
D6
330
CF
100
AcDbEntity
  8
FORMAT
 62
     0
100
AcDbLine
 10
0.0
 20
5.0
 30
0.0
 11
0.0
 21
15.0
 31
0.0
  0
LINE
  5
D7
330
CF
100
AcDbEntity
  8
FORMAT
 62
     0
100
AcDbLine
 10
-5.0
 20
0.0
 30
0.0
 11
-15.0
 21
0.0
 31
0.0
  0
LINE
  5
D8
330
CF
100
AcDbEntity
  8
FORMAT
 62
     0
100
AcDbLine
 10
0.0
 20
-5.0
 30
0.0
 11
0.0
 21
-15.0
 31
0.0
  0
LINE
  5
D9
330
CF
100
AcDbEntity
  8
FORMAT
 62
     0
100
AcDbLine
 10
5.0
 20
0.0
 30
0.0
 11
15.0
 21
0.0
 31
0.0
  0
ENDBLK
  5
D1
330
CF
100
AcDbEntity
  8
0
100
AcDbBlockEnd
  0
BLOCK
  5
DC
330
DB
100
AcDbEntity
  8
0
100
AcDbBlockBegin
  2
SW_CENTERMARKSYMBOL_5
 70
     0
 10
0.0
 20
0.0
 30
0.0
  3
SW_CENTERMARKSYMBOL_5
  1

  0
LINE
  5
DE
330
DB
100
AcDbEntity
  8
FORMAT
 62
     0
100
AcDbLine
 10
0.0
 20
0.0
 30
0.0
 11
0.0
 21
2.5
 31
0.0
  0
LINE
  5
DF
330
DB
100
AcDbEntity
  8
FORMAT
 62
     0
100
AcDbLine
 10
0.0
 20
0.0
 30
0.0
 11
-2.5
 21
0.0
 31
0.0
  0
LINE
  5
E0
330
DB
100
AcDbEntity
  8
FORMAT
 62
     0
100
AcDbLine
 10
0.0
 20
0.0
 30
0.0
 11
0.0
 21
-2.5
 31
0.0
  0
LINE
  5
E1
330
DB
100
AcDbEntity
  8
FORMAT
 62
     0
100
AcDbLine
 10
0.0
 20
0.0
 30
0.0
 11
2.5
 21
0.0
 31
0.0
  0
LINE
  5
E2
330
DB
100
AcDbEntity
  8
FORMAT
 62
     0
100
AcDbLine
 10
0.0
 20
5.0
 30
0.0
 11
0.0
 21
16.0
 31
0.0
  0
LINE
  5
E3
330
DB
100
AcDbEntity
  8
FORMAT
 62
     0
100
AcDbLine
 10
-5.0
 20
0.0
 30
0.0
 11
-16.0
 21
0.0
 31
0.0
  0
LINE
  5
E4
330
DB
100
AcDbEntity
  8
FORMAT
 62
     0
100
AcDbLine
 10
0.0
 20
-5.0
 30
0.0
 11
0.0
 21
-16.0
 31
0.0
  0
LINE
  5
E5
330
DB
100
AcDbEntity
  8
FORMAT
 62
     0
100
AcDbLine
 10
5.0
 20
0.0
 30
0.0
 11
16.0
 21
0.0
 31
0.0
  0
ENDBLK
  5
DD
330
DB
100
AcDbEntity
  8
0
100
AcDbBlockEnd
  0
BLOCK
  5
E8
330
E7
100
AcDbEntity
  8
0
100
AcDbBlockBegin
  2
SW_CENTERMARKSYMBOL_6
 70
     0
 10
0.0
 20
0.0
 30
0.0
  3
SW_CENTERMARKSYMBOL_6
  1

  0
LINE
  5
EA
330
E7
100
AcDbEntity
  8
FORMAT
 62
     0
100
AcDbLine
 10
0.0
 20
0.0
 30
0.0
 11
0.0
 21
2.5
 31
0.0
  0
LINE
  5
EB
330
E7
100
AcDbEntity
  8
FORMAT
 62
     0
100
AcDbLine
 10
0.0
 20
0.0
 30
0.0
 11
-2.5
 21
0.0
 31
0.0
  0
LINE
  5
EC
330
E7
100
AcDbEntity
  8
FORMAT
 62
     0
100
AcDbLine
 10
0.0
 20
0.0
 30
0.0
 11
0.0
 21
-2.5
 31
0.0
  0
LINE
  5
ED
330
E7
100
AcDbEntity
  8
FORMAT
 62
     0
100
AcDbLine
 10
0.0
 20
0.0
 30
0.0
 11
2.5
 21
0.0
 31
0.0
  0
LINE
  5
EE
330
E7
100
AcDbEntity
  8
FORMAT
 62
     0
100
AcDbLine
 10
0.0
 20
5.0
 30
0.0
 11
0.0
 21
16.0
 31
0.0
  0
LINE
  5
EF
330
E7
100
AcDbEntity
  8
FORMAT
 62
     0
100
AcDbLine
 10
-5.0
 20
0.0
 30
0.0
 11
-16.0
 21
0.0
 31
0.0
  0
LINE
  5
F0
330
E7
100
AcDbEntity
  8
FORMAT
 62
     0
100
AcDbLine
 10
0.0
 20
-5.0
 30
0.0
 11
0.0
 21
-16.0
 31
0.0
  0
LINE
  5
F1
330
E7
100
AcDbEntity
  8
FORMAT
 62
     0
100
AcDbLine
 10
5.0
 20
0.0
 30
0.0
 11
16.0
 21
0.0
 31
0.0
  0
ENDBLK
  5
E9
330
E7
100
AcDbEntity
  8
0
100
AcDbBlockEnd
  0
BLOCK
  5
F4
330
F3
100
AcDbEntity
  8
0
100
AcDbBlockBegin
  2
SW_CENTERMARKSYMBOL_7
 70
     0
 10
0.0
 20
0.0
 30
0.0
  3
SW_CENTERMARKSYMBOL_7
  1

  0
LINE
  5
F6
330
F3
100
AcDbEntity
  8
FORMAT
 62
     0
100
AcDbLine
 10
0.0
 20
0.0
 30
0.0
 11
0.0
 21
2.5
 31
0.0
  0
LINE
  5
F7
330
F3
100
AcDbEntity
  8
FORMAT
 62
     0
100
AcDbLine
 10
0.0
 20
0.0
 30
0.0
 11
-2.5
 21
0.0
 31
0.0
  0
LINE
  5
F8
330
F3
100
AcDbEntity
  8
FORMAT
 62
     0
100
AcDbLine
 10
0.0
 20
0.0
 30
0.0
 11
0.0
 21
-2.5
 31
0.0
  0
LINE
  5
F9
330
F3
100
AcDbEntity
  8
FORMAT
 62
     0
100
AcDbLine
 10
0.0
 20
0.0
 30
0.0
 11
2.5
 21
0.0
 31
0.0
  0
LINE
  5
FA
330
F3
100
AcDbEntity
  8
FORMAT
 62
     0
100
AcDbLine
 10
0.0
 20
5.0
 30
0.0
 11
0.0
 21
16.0
 31
0.0
  0
LINE
  5
FB
330
F3
100
AcDbEntity
  8
FORMAT
 62
     0
100
AcDbLine
 10
-5.0
 20
0.0
 30
0.0
 11
-16.0
 21
0.0
 31
0.0
  0
LINE
  5
FC
330
F3
100
AcDbEntity
  8
FORMAT
 62
     0
100
AcDbLine
 10
0.0
 20
-5.0
 30
0.0
 11
0.0
 21
-16.0
 31
0.0
  0
LINE
  5
FD
330
F3
100
AcDbEntity
  8
FORMAT
 62
     0
100
AcDbLine
 10
5.0
 20
0.0
 30
0.0
 11
16.0
 21
0.0
 31
0.0
  0
ENDBLK
  5
F5
330
F3
100
AcDbEntity
  8
0
100
AcDbBlockEnd
  0
BLOCK
  5
100
330
FF
100
AcDbEntity
  8
0
100
AcDbBlockBegin
  2
SW_CENTERMARKSYMBOL_8
 70
     0
 10
0.0
 20
0.0
 30
0.0
  3
SW_CENTERMARKSYMBOL_8
  1

  0
LINE
  5
102
330
FF
100
AcDbEntity
  8
FORMAT
 62
     0
100
AcDbLine
 10
0.0
 20
0.0
 30
0.0
 11
0.0
 21
2.5
 31
0.0
  0
LINE
  5
103
330
FF
100
AcDbEntity
  8
FORMAT
 62
     0
100
AcDbLine
 10
0.0
 20
0.0
 30
0.0
 11
-2.5
 21
0.0
 31
0.0
  0
LINE
  5
104
330
FF
100
AcDbEntity
  8
FORMAT
 62
     0
100
AcDbLine
 10
0.0
 20
0.0
 30
0.0
 11
0.0
 21
-2.5
 31
0.0
  0
LINE
  5
105
330
FF
100
AcDbEntity
  8
FORMAT
 62
     0
100
AcDbLine
 10
0.0
 20
0.0
 30
0.0
 11
2.5
 21
0.0
 31
0.0
  0
LINE
  5
106
330
FF
100
AcDbEntity
  8
FORMAT
 62
     0
100
AcDbLine
 10
0.0
 20
5.0
 30
0.0
 11
0.0
 21
16.0
 31
0.0
  0
LINE
  5
107
330
FF
100
AcDbEntity
  8
FORMAT
 62
     0
100
AcDbLine
 10
-5.0
 20
0.0
 30
0.0
 11
-16.0
 21
0.0
 31
0.0
  0
LINE
  5
108
330
FF
100
AcDbEntity
  8
FORMAT
 62
     0
100
AcDbLine
 10
0.0
 20
-5.0
 30
0.0
 11
0.0
 21
-16.0
 31
0.0
  0
LINE
  5
109
330
FF
100
AcDbEntity
  8
FORMAT
 62
     0
100
AcDbLine
 10
5.0
 20
0.0
 30
0.0
 11
16.0
 21
0.0
 31
0.0
  0
ENDBLK
  5
101
330
FF
100
AcDbEntity
  8
0
100
AcDbBlockEnd
  0
BLOCK
  5
10C
330
10B
100
AcDbEntity
  8
0
100
AcDbBlockBegin
  2
SW_CENTERMARKSYMBOL_9
 70
     0
 10
0.0
 20
0.0
 30
0.0
  3
SW_CENTERMARKSYMBOL_9
  1

  0
LINE
  5
10E
330
10B
100
AcDbEntity
  8
FORMAT
 62
     0
100
AcDbLine
 10
0.0
 20
0.0
 30
0.0
 11
0.0
 21
2.5
 31
0.0
  0
LINE
  5
10F
330
10B
100
AcDbEntity
  8
FORMAT
 62
     0
100
AcDbLine
 10
0.0
 20
0.0
 30
0.0
 11
-2.5
 21
0.0
 31
0.0
  0
LINE
  5
110
330
10B
100
AcDbEntity
  8
FORMAT
 62
     0
100
AcDbLine
 10
0.0
 20
0.0
 30
0.0
 11
0.0
 21
-2.5
 31
0.0
  0
LINE
  5
111
330
10B
100
AcDbEntity
  8
FORMAT
 62
     0
100
AcDbLine
 10
0.0
 20
0.0
 30
0.0
 11
2.5
 21
0.0
 31
0.0
  0
LINE
  5
112
330
10B
100
AcDbEntity
  8
FORMAT
 62
     0
100
AcDbLine
 10
0.0
 20
5.0
 30
0.0
 11
0.0
 21
16.0
 31
0.0
  0
LINE
  5
113
330
10B
100
AcDbEntity
  8
FORMAT
 62
     0
100
AcDbLine
 10
-5.0
 20
0.0
 30
0.0
 11
-16.0
 21
0.0
 31
0.0
  0
LINE
  5
114
330
10B
100
AcDbEntity
  8
FORMAT
 62
     0
100
AcDbLine
 10
0.0
 20
-5.0
 30
0.0
 11
0.0
 21
-16.0
 31
0.0
  0
LINE
  5
115
330
10B
100
AcDbEntity
  8
FORMAT
 62
     0
100
AcDbLine
 10
5.0
 20
0.0
 30
0.0
 11
16.0
 21
0.0
 31
0.0
  0
ENDBLK
  5
10D
330
10B
100
AcDbEntity
  8
0
100
AcDbBlockEnd
  0
BLOCK
  5
118
330
117
100
AcDbEntity
  8
0
100
AcDbBlockBegin
  2
SW_CENTERMARKSYMBOL_10
 70
     0
 10
0.0
 20
0.0
 30
0.0
  3
SW_CENTERMARKSYMBOL_10
  1

  0
LINE
  5
11A
330
117
100
AcDbEntity
  8
FORMAT
 62
     0
100
AcDbLine
 10
0.0
 20
0.0
 30
0.0
 11
0.0
 21
2.5
 31
0.0
  0
LINE
  5
11B
330
117
100
AcDbEntity
  8
FORMAT
 62
     0
100
AcDbLine
 10
0.0
 20
0.0
 30
0.0
 11
-2.5
 21
0.0
 31
0.0
  0
LINE
  5
11C
330
117
100
AcDbEntity
  8
FORMAT
 62
     0
100
AcDbLine
 10
0.0
 20
0.0
 30
0.0
 11
0.0
 21
-2.5
 31
0.0
  0
LINE
  5
11D
330
117
100
AcDbEntity
  8
FORMAT
 62
     0
100
AcDbLine
 10
0.0
 20
0.0
 30
0.0
 11
2.5
 21
0.0
 31
0.0
  0
LINE
  5
11E
330
117
100
AcDbEntity
  8
FORMAT
 62
     0
100
AcDbLine
 10
0.0
 20
5.0
 30
0.0
 11
0.0
 21
16.0
 31
0.0
  0
LINE
  5
11F
330
117
100
AcDbEntity
  8
FORMAT
 62
     0
100
AcDbLine
 10
-5.0
 20
0.0
 30
0.0
 11
-16.0
 21
0.0
 31
0.0
  0
LINE
  5
120
330
117
100
AcDbEntity
  8
FORMAT
 62
     0
100
AcDbLine
 10
0.0
 20
-5.0
 30
0.0
 11
0.0
 21
-16.0
 31
0.0
  0
LINE
  5
121
330
117
100
AcDbEntity
  8
FORMAT
 62
     0
100
AcDbLine
 10
5.0
 20
0.0
 30
0.0
 11
16.0
 21
0.0
 31
0.0
  0
ENDBLK
  5
119
330
117
100
AcDbEntity
  8
0
100
AcDbBlockEnd
  0
BLOCK
  5
124
330
123
100
AcDbEntity
  8
0
100
AcDbBlockBegin
  2
SW_CENTERMARKSYMBOL_11
 70
     0
 10
0.0
 20
0.0
 30
0.0
  3
SW_CENTERMARKSYMBOL_11
  1

  0
LINE
  5
126
330
123
100
AcDbEntity
  8
FORMAT
 62
     0
100
AcDbLine
 10
0.0
 20
0.0
 30
0.0
 11
0.0
 21
2.5
 31
0.0
  0
LINE
  5
127
330
123
100
AcDbEntity
  8
FORMAT
 62
     0
100
AcDbLine
 10
0.0
 20
0.0
 30
0.0
 11
-2.5
 21
0.0
 31
0.0
  0
LINE
  5
128
330
123
100
AcDbEntity
  8
FORMAT
 62
     0
100
AcDbLine
 10
0.0
 20
0.0
 30
0.0
 11
0.0
 21
-2.5
 31
0.0
  0
LINE
  5
129
330
123
100
AcDbEntity
  8
FORMAT
 62
     0
100
AcDbLine
 10
0.0
 20
0.0
 30
0.0
 11
2.5
 21
0.0
 31
0.0
  0
LINE
  5
12A
330
123
100
AcDbEntity
  8
FORMAT
 62
     0
100
AcDbLine
 10
0.0
 20
5.0
 30
0.0
 11
0.0
 21
16.0
 31
0.0
  0
LINE
  5
12B
330
123
100
AcDbEntity
  8
FORMAT
 62
     0
100
AcDbLine
 10
-5.0
 20
0.0
 30
0.0
 11
-16.0
 21
0.0
 31
0.0
  0
LINE
  5
12C
330
123
100
AcDbEntity
  8
FORMAT
 62
     0
100
AcDbLine
 10
0.0
 20
-5.0
 30
0.0
 11
0.0
 21
-16.0
 31
0.0
  0
LINE
  5
12D
330
123
100
AcDbEntity
  8
FORMAT
 62
     0
100
AcDbLine
 10
5.0
 20
0.0
 30
0.0
 11
16.0
 21
0.0
 31
0.0
  0
ENDBLK
  5
125
330
123
100
AcDbEntity
  8
0
100
AcDbBlockEnd
  0
BLOCK
  5
130
330
12F
100
AcDbEntity
  8
0
100
AcDbBlockBegin
  2
SW_CENTERMARKSYMBOL_12
 70
     0
 10
0.0
 20
0.0
 30
0.0
  3
SW_CENTERMARKSYMBOL_12
  1

  0
LINE
  5
132
330
12F
100
AcDbEntity
  8
FORMAT
 62
     0
100
AcDbLine
 10
0.0
 20
0.0
 30
0.0
 11
0.0
 21
2.5
 31
0.0
  0
LINE
  5
133
330
12F
100
AcDbEntity
  8
FORMAT
 62
     0
100
AcDbLine
 10
0.0
 20
0.0
 30
0.0
 11
-2.5
 21
0.0
 31
0.0
  0
LINE
  5
134
330
12F
100
AcDbEntity
  8
FORMAT
 62
     0
100
AcDbLine
 10
0.0
 20
0.0
 30
0.0
 11
0.0
 21
-2.5
 31
0.0
  0
LINE
  5
135
330
12F
100
AcDbEntity
  8
FORMAT
 62
     0
100
AcDbLine
 10
0.0
 20
0.0
 30
0.0
 11
2.5
 21
0.0
 31
0.0
  0
LINE
  5
136
330
12F
100
AcDbEntity
  8
FORMAT
 62
     0
100
AcDbLine
 10
0.0
 20
5.0
 30
0.0
 11
0.0
 21
16.0
 31
0.0
  0
LINE
  5
137
330
12F
100
AcDbEntity
  8
FORMAT
 62
     0
100
AcDbLine
 10
-5.0
 20
0.0
 30
0.0
 11
-16.0
 21
0.0
 31
0.0
  0
LINE
  5
138
330
12F
100
AcDbEntity
  8
FORMAT
 62
     0
100
AcDbLine
 10
0.0
 20
-5.0
 30
0.0
 11
0.0
 21
-16.0
 31
0.0
  0
LINE
  5
139
330
12F
100
AcDbEntity
  8
FORMAT
 62
     0
100
AcDbLine
 10
5.0
 20
0.0
 30
0.0
 11
16.0
 21
0.0
 31
0.0
  0
ENDBLK
  5
131
330
12F
100
AcDbEntity
  8
0
100
AcDbBlockEnd
  0
ENDSEC
  0
SECTION
  2
ENTITIES
  0
CIRCLE
  5
83
330
1F
100
AcDbEntity
  8
0
  6
Continuous
 62
     7
370
    25
100
AcDbCircle
 10
-49.494956203
 20
216.5329919122
 30
0.0
 40
13.50000000000001
  0
CIRCLE
  5
84
330
1F
100
AcDbEntity
  8
0
  6
Continuous
 62
     7
370
    25
100
AcDbCircle
 10
-49.494956203
 20
0.6329919122
 30
0.0
 40
13.50000000000001
  0
CIRCLE
  5
85
330
1F
100
AcDbEntity
  8
0
  6
Continuous
 62
     7
370
    25
100
AcDbCircle
 10
137.4799284741
 20
-107.3170080878
 30
0.0
 40
13.5
  0
CIRCLE
  5
86
330
1F
100
AcDbEntity
  8
0
  6
Continuous
 62
     7
370
    25
100
AcDbCircle
 10
353.3799284741
 20
108.5829919122
 30
0.0
 40
13.50000000000006
  0
CIRCLE
  5
87
330
1F
100
AcDbEntity
  8
0
  6
Continuous
 62
     7
370
    25
100
AcDbCircle
 10
245.4299284741
 20
295.5578765893
 30
0.0
 40
13.5
  0
CIRCLE
  5
88
330
1F
100
AcDbEntity
  8
0
  6
Continuous
 62
     7
370
    25
100
AcDbCircle
 10
137.4799284741
 20
324.4829919122
 30
0.0
 40
13.50000000000003
  0
CIRCLE
  5
89
330
1F
100
AcDbEntity
  8
0
  6
Continuous
 62
     7
370
    25
100
AcDbCircle
 10
137.4799284741
 20
108.5829919122
 30
0.0
 40
242.5
  0
CIRCLE
  5
8A
330
1F
100
AcDbEntity
  8
0
  6
Continuous
 62
     7
370
    25
100
AcDbCircle
 10
137.4799284741
 20
108.5829919122
 30
0.0
 40
170.0000000000001
  0
CIRCLE
  5
8B
330
1F
100
AcDbEntity
  8
0
  6
Continuous
 62
     7
370
    25
100
AcDbCircle
 10
324.4548131511
 20
0.6329919122
 30
0.0
 40
13.50000000000006
  0
CIRCLE
  5
8C
330
1F
100
AcDbEntity
  8
0
  6
Continuous
 62
     7
370
    25
100
AcDbCircle
 10
324.4548131511
 20
216.5329919122
 30
0.0
 40
13.5
  0
CIRCLE
  5
8D
330
1F
100
AcDbEntity
  8
0
  6
Continuous
 62
     7
370
    25
100
AcDbCircle
 10
245.4299284741
 20
-78.3918927648
 30
0.0
 40
13.50000000000006
  0
CIRCLE
  5
8E
330
1F
100
AcDbEntity
  8
0
  6
Continuous
 62
     7
370
    25
100
AcDbCircle
 10
29.5299284741
 20
-78.3918927648
 30
0.0
 40
13.50000000000001
  0
CIRCLE
  5
8F
330
1F
100
AcDbEntity
  8
0
  6
Continuous
 62
     7
370
    25
100
AcDbCircle
 10
-78.4200715259
 20
108.5829919122
 30
0.0
 40
13.50000000000001
  0
CIRCLE
  5
90
330
1F
100
AcDbEntity
  8
0
  6
Continuous
 62
     7
370
    25
100
AcDbCircle
 10
29.5299284741
 20
295.5578765893
 30
0.0
 40
13.50000000000001
  0
CIRCLE
  5
91
330
1F
100
AcDbEntity
  8
0
  6
Continuous
 62
     7
370
    25
100
AcDbCircle
 10
324.4548131511
 20
216.5329919122
 30
0.0
 40
12.5
  0
CIRCLE
  5
92
330
1F
100
AcDbEntity
  8
0
  6
Continuous
 62
     7
370
    25
100
AcDbCircle
 10
324.4548131511
 20
0.6329919122
 30
0.0
 40
12.50000000000006
  0
CIRCLE
  5
93
330
1F
100
AcDbEntity
  8
0
  6
Continuous
 62
     7
370
    25
100
AcDbCircle
 10
137.4799284741
 20
108.5829919122
 30
0.0
 40
169.0000000000001
  0
CIRCLE
  5
94
330
1F
100
AcDbEntity
  8
0
  6
Continuous
 62
     7
370
    25
100
AcDbCircle
 10
137.4799284741
 20
108.5829919122
 30
0.0
 40
243.5
  0
CIRCLE
  5
95
330
1F
100
AcDbEntity
  8
0
  6
Continuous
 62
     7
370
    25
100
AcDbCircle
 10
137.4799284741
 20
324.4829919122
 30
0.0
 40
12.50000000000003
  0
CIRCLE
  5
96
330
1F
100
AcDbEntity
  8
0
  6
Continuous
 62
     7
370
    25
100
AcDbCircle
 10
245.4299284741
 20
295.5578765893
 30
0.0
 40
12.5
  0
CIRCLE
  5
97
330
1F
100
AcDbEntity
  8
0
  6
Continuous
 62
     7
370
    25
100
AcDbCircle
 10
353.3799284741
 20
108.5829919122
 30
0.0
 40
12.50000000000006
  0
CIRCLE
  5
98
330
1F
100
AcDbEntity
  8
0
  6
Continuous
 62
     7
370
    25
100
AcDbCircle
 10
29.5299284741
 20
295.5578765893
 30
0.0
 40
12.50000000000001
  0
CIRCLE
  5
99
330
1F
100
AcDbEntity
  8
0
  6
Continuous
 62
     7
370
    25
100
AcDbCircle
 10
-78.4200715259
 20
108.5829919122
 30
0.0
 40
12.5
  0
CIRCLE
  5
9A
330
1F
100
AcDbEntity
  8
0
  6
Continuous
 62
     7
370
    25
100
AcDbCircle
 10
29.5299284741
 20
-78.3918927648
 30
0.0
 40
12.50000000000001
  0
CIRCLE
  5
9B
330
1F
100
AcDbEntity
  8
0
  6
Continuous
 62
     7
370
    25
100
AcDbCircle
 10
245.4299284741
 20
-78.3918927648
 30
0.0
 40
12.50000000000006
  0
CIRCLE
  5
9C
330
1F
100
AcDbEntity
  8
0
  6
Continuous
 62
     7
370
    25
100
AcDbCircle
 10
137.4799284741
 20
-107.3170080878
 30
0.0
 40
12.5
  0
CIRCLE
  5
9D
330
1F
100
AcDbEntity
  8
0
  6
Continuous
 62
     7
370
    25
100
AcDbCircle
 10
-49.494956203
 20
0.6329919122
 30
0.0
 40
12.50000000000001
  0
CIRCLE
  5
9E
330
1F
100
AcDbEntity
  8
0
  6
Continuous
 62
     7
370
    25
100
AcDbCircle
 10
-49.494956203
 20
216.5329919122
 30
0.0
 40
12.50000000000001
  0
INSERT
  5
AA
330
1F
100
AcDbEntity
  8
FORMAT
 62
     7
100
AcDbBlockReference
  2
SW_CENTERMARKSYMBOL_0
 10
137.4799284741
 20
108.5829919122
 30
0.0
  0
INSERT
  5
B6
330
1F
100
AcDbEntity
  8
FORMAT
 62
     7
100
AcDbBlockReference
  2
SW_CENTERMARKSYMBOL_1
 10
137.4799284741
 20
324.4829919122
 30
0.0
  0
INSERT
  5
C2
330
1F
100
AcDbEntity
  8
FORMAT
 62
     7
100
AcDbBlockReference
  2
SW_CENTERMARKSYMBOL_2
 10
245.4299284741
 20
295.5578765893
 30
0.0
  0
INSERT
  5
CE
330
1F
100
AcDbEntity
  8
FORMAT
 62
     7
100
AcDbBlockReference
  2
SW_CENTERMARKSYMBOL_3
 10
324.4548131511
 20
216.5329919122
 30
0.0
  0
INSERT
  5
DA
330
1F
100
AcDbEntity
  8
FORMAT
 62
     7
100
AcDbBlockReference
  2
SW_CENTERMARKSYMBOL_4
 10
353.3799284741
 20
108.5829919122
 30
0.0
  0
INSERT
  5
E6
330
1F
100
AcDbEntity
  8
FORMAT
 62
     7
100
AcDbBlockReference
  2
SW_CENTERMARKSYMBOL_5
 10
29.5299284741
 20
295.5578765893
 30
0.0
  0
INSERT
  5
F2
330
1F
100
AcDbEntity
  8
FORMAT
 62
     7
100
AcDbBlockReference
  2
SW_CENTERMARKSYMBOL_6
 10
-49.494956203
 20
216.5329919122
 30
0.0
  0
INSERT
  5
FE
330
1F
100
AcDbEntity
  8
FORMAT
 62
     7
100
AcDbBlockReference
  2
SW_CENTERMARKSYMBOL_7
 10
-78.4200715259
 20
108.5829919122
 30
0.0
  0
INSERT
  5
10A
330
1F
100
AcDbEntity
  8
FORMAT
 62
     7
100
AcDbBlockReference
  2
SW_CENTERMARKSYMBOL_8
 10
-49.494956203
 20
0.6329919122
 30
0.0
  0
INSERT
  5
116
330
1F
100
AcDbEntity
  8
FORMAT
 62
     7
100
AcDbBlockReference
  2
SW_CENTERMARKSYMBOL_9
 10
29.5299284741
 20
-78.3918927648
 30
0.0
  0
INSERT
  5
122
330
1F
100
AcDbEntity
  8
FORMAT
 62
     7
100
AcDbBlockReference
  2
SW_CENTERMARKSYMBOL_10
 10
137.4799284741
 20
-107.3170080878
 30
0.0
  0
INSERT
  5
12E
330
1F
100
AcDbEntity
  8
FORMAT
 62
     7
100
AcDbBlockReference
  2
SW_CENTERMARKSYMBOL_11
 10
245.4299284741
 20
-78.3918927648
 30
0.0
  0
INSERT
  5
13A
330
1F
100
AcDbEntity
  8
FORMAT
 62
     7
100
AcDbBlockReference
  2
SW_CENTERMARKSYMBOL_12
 10
324.4548131511
 20
0.6329919122
 30
0.0
  0
LINE
  5
13B
330
1F
100
AcDbEntity
  8
0
  6
Continuous
 62
     7
370
    25
100
AcDbLine
 10
-462.3359242838
 20
352.0829919122
 30
0.0
 11
-492.3359242838
 21
352.0829919122
 31
0.0
  0
LINE
  5
13C
330
1F
100
AcDbEntity
  8
0
  6
Continuous
 62
     7
370
    25
100
AcDbLine
 10
-492.3359242838
 20
-134.9170080878
 30
0.0
 11
-462.3359242838
 21
-134.9170080878
 31
0.0
  0
ARC
  5
13D
330
1F
100
AcDbEntity
  8
0
  6
Continuous
 62
     7
370
    25
100
AcDbCircle
 10
-462.3359242838
 20
-133.9170080878
 30
0.0
 40
1.0
100
AcDbArc
 50
270.0
 51
0.0
  0
ARC
  5
13E
330
1F
100
AcDbEntity
  8
0
  6
Continuous
 62
     7
370
    25
100
AcDbCircle
 10
-462.3359242838
 20
351.0829919122
 30
0.0
 40
1.0
100
AcDbArc
 50
0.0
 51
90.0
  0
ARC
  5
13F
330
1F
100
AcDbEntity
  8
0
  6
Continuous
 62
     7
370
    25
100
AcDbCircle
 10
-492.3359242838
 20
-133.9170080878
 30
0.0
 40
1.0
100
AcDbArc
 50
180.0
 51
270.0
  0
ARC
  5
140
330
1F
100
AcDbEntity
  8
0
  6
Continuous
 62
     7
370
    25
100
AcDbCircle
 10
-492.3359242838
 20
351.0829919122
 30
0.0
 40
1.0
100
AcDbArc
 50
90.0
 51
180.0
  0
LINE
  5
141
330
1F
100
AcDbEntity
  8
0
  6
Continuous
 62
     7
370
    25
100
AcDbLine
 10
-461.3359242838
 20
108.5829919122
 30
0.0
 11
-461.3359242838
 21
-133.9170080878
 31
0.0
  0
LINE
  5
142
330
1F
100
AcDbEntity
  8
0
  6
Continuous
 62
     7
370
    25
100
AcDbLine
 10
-461.3359242838
 20
351.0829919122
 30
0.0
 11
-461.3359242838
 21
108.5829919122
 31
0.0
  0
LINE
  5
143
330
1F
100
AcDbEntity
  8
0
  6
Continuous
 62
     7
370
    25
100
AcDbLine
 10
-493.3359242838
 20
108.5829919122
 30
0.0
 11
-493.3359242838
 21
351.0829919122
 31
0.0
  0
LINE
  5
144
330
1F
100
AcDbEntity
  8
0
  6
Continuous
 62
     7
370
    25
100
AcDbLine
 10
-493.3359242838
 20
-133.9170080878
 30
0.0
 11
-493.3359242838
 21
108.5829919122
 31
0.0
  0
LINE
  5
145
330
1F
100
AcDbEntity
  8
0
  6
Continuous
 62
     1
370
    25
100
AcDbLine
 10
-492.3359242838
 20
108.5829919122
 30
0.0
 11
-492.3359242838
 21
-134.9170080878
 31
0.0
  0
LINE
  5
146
330
1F
100
AcDbEntity
  8
0
  6
Continuous
 62
     1
370
    25
100
AcDbLine
 10
-492.3359242838
 20
352.0829919122
 30
0.0
 11
-492.3359242838
 21
108.5829919122
 31
0.0
  0
LINE
  5
147
330
1F
100
AcDbEntity
  8
0
  6
Continuous
 62
     1
370
    25
100
AcDbLine
 10
-462.3359242838
 20
108.5829919122
 30
0.0
 11
-462.3359242838
 21
352.0829919122
 31
0.0
  0
LINE
  5
148
330
1F
100
AcDbEntity
  8
0
  6
Continuous
 62
     1
370
    25
100
AcDbLine
 10
-462.3359242838
 20
-134.9170080878
 30
0.0
 11
-462.3359242838
 21
108.5829919122
 31
0.0
  0
LINE
  5
149
330
1F
100
AcDbEntity
  8
0
  6
Continuous
 62
     7
370
    25
100
AcDbLine
 10
614.2183535702
 20
-134.9170080878
 30
0.0
 11
644.2183535702
 21
-134.9170080878
 31
0.0
  0
LINE
  5
14A
330
1F
100
AcDbEntity
  8
0
  6
Continuous
 62
     7
370
    25
100
AcDbLine
 10
644.2183535702
 20
352.0829919122
 30
0.0
 11
614.2183535702
 21
352.0829919122
 31
0.0
  0
ARC
  5
14B
330
1F
100
AcDbEntity
  8
0
  6
Continuous
 62
     7
370
    25
100
AcDbCircle
 10
614.2183535702
 20
351.0829919122
 30
0.0
 40
1.0
100
AcDbArc
 50
90.0
 51
180.0
  0
ARC
  5
14C
330
1F
100
AcDbEntity
  8
0
  6
Continuous
 62
     7
370
    25
100
AcDbCircle
 10
614.2183535702
 20
-133.9170080878
 30
0.0
 40
1.0
100
AcDbArc
 50
180.0
 51
270.0
  0
ARC
  5
14D
330
1F
100
AcDbEntity
  8
0
  6
Continuous
 62
     7
370
    25
100
AcDbCircle
 10
644.2183535702
 20
351.0829919122
 30
0.0
 40
1.0
100
AcDbArc
 50
0.0
 51
90.0
  0
ARC
  5
14E
330
1F
100
AcDbEntity
  8
0
  6
Continuous
 62
     7
370
    25
100
AcDbCircle
 10
644.2183535702
 20
-133.9170080878
 30
0.0
 40
1.0
100
AcDbArc
 50
270.0
 51
0.0
  0
LINE
  5
14F
330
1F
100
AcDbEntity
  8
0
  6
Continuous
 62
     7
370
    25
100
AcDbLine
 10
613.2183535702
 20
-133.9170080878
 30
0.0
 11
613.2183535702
 21
351.0829919122
 31
0.0
  0
LINE
  5
150
330
1F
100
AcDbEntity
  8
0
  6
Continuous
 62
     7
370
    25
100
AcDbLine
 10
645.2183535702
 20
351.0829919122
 30
0.0
 11
645.2183535702
 21
-133.9170080878
 31
0.0
  0
LINE
  5
151
330
1F
100
AcDbEntity
  8
0
  6
Continuous
 62
     1
370
    25
100
AcDbLine
 10
644.2183535702
 20
-134.9170080878
 30
0.0
 11
644.2183535702
 21
352.0829919122
 31
0.0
  0
LINE
  5
152
330
1F
100
AcDbEntity
  8
0
  6
Continuous
 62
     1
370
    25
100
AcDbLine
 10
614.2183535702
 20
352.0829919122
 30
0.0
 11
614.2183535702
 21
-134.9170080878
 31
0.0
  0
LINE
  5
153
330
1F
100
AcDbEntity
  8
0
  6
Continuous
 62
     7
370
    25
100
AcDbLine
 10
380.9799284741
 20
500.5928842006
 30
0.0
 11
380.9799284741
 21
530.5928842006
 31
0.0
  0
LINE
  5
154
330
1F
100
AcDbEntity
  8
0
  6
Continuous
 62
     7
370
    25
100
AcDbLine
 10
-106.0200715259
 20
530.5928842006
 30
0.0
 11
-106.0200715259
 21
500.5928842006
 31
0.0
  0
ARC
  5
155
330
1F
100
AcDbEntity
  8
0
  6
Continuous
 62
     7
370
    25
100
AcDbCircle
 10
-105.0200715259
 20
500.5928842006
 30
0.0
 40
1.0
100
AcDbArc
 50
180.0
 51
270.0
  0
ARC
  5
156
330
1F
100
AcDbEntity
  8
0
  6
Continuous
 62
     7
370
    25
100
AcDbCircle
 10
379.9799284741
 20
500.5928842006
 30
0.0
 40
1.0
100
AcDbArc
 50
270.0
 51
0.0
  0
ARC
  5
157
330
1F
100
AcDbEntity
  8
0
  6
Continuous
 62
     7
370
    25
100
AcDbCircle
 10
-105.0200715259
 20
530.5928842006
 30
0.0
 40
1.0
100
AcDbArc
 50
90.0
 51
180.0
  0
ARC
  5
158
330
1F
100
AcDbEntity
  8
0
  6
Continuous
 62
     7
370
    25
100
AcDbCircle
 10
379.9799284741
 20
530.5928842006
 30
0.0
 40
1.0
100
AcDbArc
 50
0.0
 51
90.0
  0
LINE
  5
159
330
1F
100
AcDbEntity
  8
0
  6
Continuous
 62
     7
370
    25
100
AcDbLine
 10
379.9799284741
 20
499.5928842006
 30
0.0
 11
-105.0200715251
 21
499.5928842006
 31
0.0
  0
LINE
  5
15A
330
1F
100
AcDbEntity
  8
0
  6
Continuous
 62
     7
370
    25
100
AcDbLine
 10
-105.0200715251
 20
531.5928842006
 30
0.0
 11
379.9799284741
 21
531.5928842006
 31
0.0
  0
LINE
  5
15B
330
1F
100
AcDbEntity
  8
0
  6
Continuous
 62
     1
370
    25
100
AcDbLine
 10
380.9799284741
 20
530.5928842006
 30
0.0
 11
-106.0200715259
 21
530.5928842006
 31
0.0
  0
LINE
  5
15C
330
1F
100
AcDbEntity
  8
0
  6
Continuous
 62
     1
370
    25
100
AcDbLine
 10
-106.0200715259
 20
500.5928842006
 30
0.0
 11
380.9799284741
 21
500.5928842006
 31
0.0
  0
LINE
  5
15D
330
1F
100
AcDbEntity
  8
0
  6
Continuous
 62
     7
370
    25
100
AcDbLine
 10
-106.0200715259
 20
-420.9402196165
 30
0.0
 11
-106.0200715259
 21
-450.9402196165
 31
0.0
  0
LINE
  5
15E
330
1F
100
AcDbEntity
  8
0
  6
Continuous
 62
     7
370
    25
100
AcDbLine
 10
380.9799284741
 20
-450.9402196165
 30
0.0
 11
380.9799284741
 21
-420.9402196165
 31
0.0
  0
ARC
  5
15F
330
1F
100
AcDbEntity
  8
0
  6
Continuous
 62
     7
370
    25
100
AcDbCircle
 10
379.9799284741
 20
-420.9402196165
 30
0.0
 40
1.0
100
AcDbArc
 50
0.0
 51
90.0
  0
ARC
  5
160
330
1F
100
AcDbEntity
  8
0
  6
Continuous
 62
     7
370
    25
100
AcDbCircle
 10
-105.0200715259
 20
-420.9402196165
 30
0.0
 40
1.0
100
AcDbArc
 50
90.0
 51
180.0
  0
ARC
  5
161
330
1F
100
AcDbEntity
  8
0
  6
Continuous
 62
     7
370
    25
100
AcDbCircle
 10
379.9799284741
 20
-450.9402196165
 30
0.0
 40
1.0
100
AcDbArc
 50
270.0
 51
0.0
  0
ARC
  5
162
330
1F
100
AcDbEntity
  8
0
  6
Continuous
 62
     7
370
    25
100
AcDbCircle
 10
-105.0200715259
 20
-450.9402196165
 30
0.0
 40
1.0
100
AcDbArc
 50
180.0
 51
270.0
  0
LINE
  5
163
330
1F
100
AcDbEntity
  8
0
  6
Continuous
 62
     7
370
    25
100
AcDbLine
 10
-105.0200715251
 20
-419.9402196165
 30
0.0
 11
379.9799284741
 21
-419.9402196165
 31
0.0
  0
LINE
  5
164
330
1F
100
AcDbEntity
  8
0
  6
Continuous
 62
     7
370
    25
100
AcDbLine
 10
379.9799284741
 20
-451.9402196165
 30
0.0
 11
-105.0200715251
 21
-451.9402196165
 31
0.0
  0
LINE
  5
165
330
1F
100
AcDbEntity
  8
0
  6
Continuous
 62
     1
370
    25
100
AcDbLine
 10
-106.0200715259
 20
-450.9402196165
 30
0.0
 11
380.9799284741
 21
-450.9402196165
 31
0.0
  0
LINE
  5
166
330
1F
100
AcDbEntity
  8
0
  6
Continuous
 62
     1
370
    25
100
AcDbLine
 10
380.9799284741
 20
-420.9402196165
 30
0.0
 11
-106.0200715259
 21
-420.9402196165
 31
0.0
  0
SPLINE
  5
167
330
1F
100
AcDbEntity
  8
0
  6
Continuous
 62
     7
370
    25
100
AcDbSpline
210
0.0
220
0.0
230
1.0
 70
     8
 71
     3
 72
    81
 73
    77
 74
     0
 42
0.00000001
 43
0.00000001
 40
0.0
 40
0.0
 40
0.0
 40
0.0
 40
0.005687717767372
 40
0.0194168216531972
 40
0.0331515520399112
 40
0.0468916001283676
 40
0.0606365068557436
 40
0.074385718020013
 40
0.0881386332219012
 40
0.1018946457390641
 40
0.1156531723903563
 40
0.1294136738561338
 40
0.1431756667647663
 40
0.1569387292244139
 40
0.1707025015081595
 40
0.1844666834250239
 40
0.1982310254041218
 40
0.2119952797501896
 40
0.2257593061982507
 40
0.2395229993593662
 40
0.2532862831830062
 40
0.2670491059926646
 40
0.280811436136269
 40
0.2945732582459963
 40
0.3083345700706764
 40
0.322095379827195
 40
0.3358557040103137
 40
0.3496155655995983
 40
0.3633749926052599
 40
0.3771340168997092
 40
0.3908926732876301
 40
0.4046509987734178
 40
0.4184090319906413
 40
0.4321668127634908
 40
0.4459243817747627
 40
0.4596817803189622
 40
0.4734390501224233
 40
0.4871962332150432
 40
0.5009533718404043
 40
0.514710508392705
 40
0.5284676766589148
 40
0.5422249137578417
 40
0.5559822622945801
 40
0.5697397648603871
 40
0.5834974639627015
 40
0.5972554019258276
 40
0.6110136207495245
 40
0.6247721619116008
 40
0.6385310660982025
 40
0.6522903728425324
 40
0.666050120049208
 40
0.6798103433771014
 40
0.6935710754486529
 40
0.7073323448479947
 40
0.7210941748640882
 40
0.7348565819288118
 40
0.7486195736936639
 40
0.762383146683846
 40
0.7761472834655997
 40
0.7899119492642378
 40
0.8036770879787402
 40
0.8174426175581571
 40
0.831208424740405
 40
0.8449743485426457
 40
0.8587401313437624
 40
0.8725055120362422
 40
0.8862701718153626
 40
0.9000337295289625
 40
0.9137957393308329
 40
0.927555691980223
 40
0.9413130214068328
 40
0.9550671183146677
 40
0.9688173525169066
 40
0.9825631052346142
 40
0.9963038116175638
 40
1.0
 40
1.0
 40
1.0
 40
1.0
 10
784.7648529522824
 20
-180.1921459102259
 30
0.0
 10
784.0232422440731
 20
-180.1171797953359
 30
0.0
 10
781.4915197771099
 20
-179.8612592763534
 30
0.0
 10
777.0551646349937
 20
-179.7280190473197
 30
0.0
 10
771.4666934785137
 20
-179.7859649804326
 30
0.0
 10
765.7770740677664
 20
-180.1505582307688
 30
0.0
 10
760.0022672799331
 20
-180.7991221162881
 30
0.0
 10
754.1476010952524
 20
-181.7368433427798
 30
0.0
 10
748.2214054831962
 20
-182.9609235567404
 30
0.0
 10
742.231330140792
 20
-184.4701936773667
 30
0.0
 10
736.1853072365395
 20
-186.2625438298095
 30
0.0
 10
730.0912719148472
 20
-188.3356220244795
 30
0.0
 10
723.9572187593902
 20
-190.6866579056622
 30
0.0
 10
717.7911708265834
 20
-193.3125214521141
 30
0.0
 10
711.6011742153974
 20
-196.2097185841931
 30
0.0
 10
705.3952879730856
 20
-199.3744029337123
 30
0.0
 10
699.1815829165046
 20
-202.8023789240923
 30
0.0
 10
692.9681235706817
 20
-206.4891137272529
 30
0.0
 10
686.7629596170834
 20
-210.4297454020383
 30
0.0
 10
680.574110959481
 20
-214.6190957411185
 30
0.0
 10
674.4095694887496
 20
-219.051671753576
 30
0.0
 10
668.2772906189253
 20
-223.7216727606802
 30
0.0
 10
662.1851846058786
 20
-228.6229976601012
 30
0.0
 10
656.141107664811
 20
-233.7492524292299
 30
0.0
 10
650.1528529152483
 20
-239.0937579191501
 30
0.0
 10
644.2281411897384
 20
-244.6495579759179
 30
0.0
 10
638.3746117457595
 20
-250.409427912601
 30
0.0
 10
632.599812920879
 20
-256.3658833449684
 30
0.0
 10
626.9111927699914
 20
-262.5111893952711
 30
0.0
 10
621.3160897212815
 20
-268.8373702620331
 30
0.0
 10
615.8217232848825
 20
-275.3362191487851
 30
0.0
 10
610.4351848453887
 20
-281.9993085409377
 30
0.0
 10
605.1634285666338
 20
-288.818000817237
 30
0.0
 10
600.0132624345739
 20
-295.7834591802057
 30
0.0
 10
594.9913394617912
 20
-302.8866588885148
 30
0.0
 10
590.1041490750567
 20
-310.1183987731453
 30
0.0
 10
585.3580087055857
 20
-317.4693130184069
 30
0.0
 10
580.7590556000104
 20
-324.9298831883157
 30
0.0
 10
576.3132388688117
 20
-332.4904504781746
 30
0.0
 10
572.0263126922425
 20
-340.1412265566024
 30
0.0
 10
567.9038283721818
 20
-347.8723067238525
 30
0.0
 10
563.9511265188382
 20
-355.6736837272667
 30
0.0
 10
560.173329430532
 20
-363.5352624289116
 30
0.0
 10
556.5753350015113
 20
-371.4468723270521
 30
0.0
 10
553.161811032181
 20
-379.3982796999662
 30
0.0
 10
549.9371893213512
 20
-387.3792008445751
 30
0.0
 10
546.9056600942116
 20
-395.3793153650443
 30
0.0
 10
544.0711667746262
 20
-403.388279485858
 30
0.0
 10
541.4374011090287
 20
-411.3957393629294
 30
0.0
 10
539.0077986477664
 20
-419.3913443649416
 30
0.0
 10
536.7855345879342
 20
-427.3647602956388
 30
0.0
 10
534.7735199794444
 20
-435.3056825261534
 30
0.0
 10
532.9743982932251
 20
-443.2038490047097
 30
0.0
 10
531.3905423467664
 20
-451.0490531093049
 30
0.0
 10
530.0240515776288
 20
-458.8311563073461
 30
0.0
 10
528.8767496497692
 20
-466.5401005849394
 30
0.0
 10
527.9501823703574
 20
-474.1659206079714
 30
0.0
 10
527.2456158860932
 20
-481.6987555776398
 30
0.0
 10
526.76403511744
 20
-489.1288607457413
 30
0.0
 10
526.5061423777221
 20
-496.4466185594466
 30
0.0
 10
526.4723561081894
 20
-503.6425494172957
 30
0.0
 10
526.6628096545973
 20
-510.7073220221218
 30
0.0
 10
527.0773498577537
 20
-517.6317615889498
 30
0.0
 10
527.7155345200865
 20
-524.4068508815959
 30
0.0
 10
528.5766295262611
 20
-531.023748667723
 30
0.0
 10
529.6596073839119
 20
-537.473799915535
 30
0.0
 10
530.9631434434845
 20
-543.748556942965
 30
0.0
 10
532.4856235329434
 20
-549.8397675144087
 30
0.0
 10
534.2250978249685
 20
-555.739438864517
 30
0.0
 10
536.1794369156172
 20
-561.4396523473669
 30
0.0
 10
538.345733560489
 20
-566.9333147586582
 30
0.0
 10
540.722521217836
 20
-572.2114228793787
 30
0.0
 10
543.3014894829457
 20
-577.2733453337148
 30
0.0
 10
546.0983908381177
 20
-582.0885530204702
 30
0.0
 10
548.3219210221248
 20
-585.606794633186
 30
0.0
 10
549.6745821604067
 20
-587.439922894398
 30
0.0
 10
549.9613127080163
 20
-587.8285005324336
 30
0.0
  0
LINE
  5
168
330
1F
100
AcDbEntity
  8
0
  6
Continuous
 62
     7
370
    25
100
AcDbLine
 10
841.9227493642
 20
-203.4953362225
 30
0.0
 11
820.7095459286
 21
-191.2492145451
 31
0.0
  0
LINE
  5
169
330
1F
100
AcDbEntity
  8
0
  6
Continuous
 62
     7
370
    25
100
AcDbLine
 10
577.2293345317
 20
-613.0150105245
 30
0.0
 11
598.4425379673
 21
-625.2611322019
 31
0.0
  0
SPLINE
  5
16A
330
1F
100
AcDbEntity
  8
0
  6
Continuous
 62
     7
370
    25
100
AcDbSpline
210
0.0
220
0.0
230
1.0
 70
     8
 71
     3
 72
    66
 73
    62
 74
     0
 42
0.00000001
 43
0.00000001
 40
0.0
 40
0.0
 40
0.0
 40
0.0
 40
0.0030534212829865
 40
0.0202555426480724
 40
0.0374647578434958
 40
0.054680720667661
 40
0.071902884041219
 40
0.0891305698632881
 40
0.1063630320511222
 40
0.1235995086632891
 40
0.1408392615395538
 40
0.1580816037818823
 40
0.1753259165788851
 40
0.1925716574319447
 40
0.2098183619401403
 40
0.2270656411153456
 40
0.2443131758715514
 40
0.2615606459757161
 40
0.2788078582240794
 40
0.2960546733478419
 40
0.313300990019749
 40
0.3305467385000946
 40
0.3477918750490951
 40
0.3650363771075825
 40
0.3822802392053244
 40
0.399523469532487
 40
0.4167660870991957
 40
0.4340081194061053
 40
0.4512496005521553
 40
0.4684905697116133
 40
0.4857310699198881
 40
0.5029711471152438
 40
0.520210849390884
 40
0.5374502264186174
 40
0.5546893290112886
 40
0.5719282087962883
 40
0.5891669179767764
 40
0.6064055091607956
 40
0.6236440352412445
 40
0.6408825493118786
 40
0.6581210968305925
 40
0.6753597211562247
 40
0.6925984756713407
 40
0.7098374137540128
 40
0.7270765886950042
 40
0.7443160535810054
 40
0.7615558611279646
 40
0.7787960634475452
 40
0.7960367117268285
 40
0.8132778557978653
 40
0.8305195435693282
 40
0.8477618202873001
 40
0.8650047275862024
 40
0.8822483022839764
 40
0.8994925748680658
 40
0.916737567610798
 40
0.9339832922449742
 40
0.9512297471238031
 40
0.968476913785207
 40
0.9857247528412105
 40
1.0
 40
1.0
 40
1.0
 40
1.0
 10
634.7050618302125
 20
-636.3604442555828
 30
0.0
 10
635.0220096120489
 20
-636.3945483736225
 30
0.0
 10
637.1245525359388
 20
-636.6207855526438
 30
0.0
 10
641.1194737487974
 20
-636.7595233836915
 30
0.0
 10
646.6878041445469
 20
-636.7595947864812
 30
0.0
 10
652.3619610924048
 20
-636.4443050187409
 30
0.0
 10
658.1217334361647
 20
-635.8472764680399
 30
0.0
 10
663.9629624192465
 20
-634.960296670388
 30
0.0
 10
669.877029384899
 20
-633.7868841633709
 30
0.0
 10
675.8563822043598
 20
-632.3279249079224
 30
0.0
 10
681.8930786248052
 20
-630.5855161282534
 30
0.0
 10
687.9791987053827
 20
-628.5619265085454
 30
0.0
 10
694.1067532258745
 20
-626.2598640406128
 30
0.0
 10
700.2677244978564
 20
-623.6823928006203
 30
0.0
 10
706.4540694876442
 20
-620.8329438646363
 30
0.0
 10
712.6577313984125
 20
-617.7153013790688
 30
0.0
 10
718.870640193098
 20
-614.3335999918055
 30
0.0
 10
725.0847296589495
 20
-610.692313406178
 30
0.0
 10
731.2919463913626
 20
-606.7962462381673
 30
0.0
 10
737.484265320736
 20
-602.6505208850899
 30
0.0
 10
743.6536889884652
 20
-598.2605751435298
 30
0.0
 10
749.7922548990282
 20
-593.6321557633667
 30
0.0
 10
755.8920441633942
 20
-588.7713112193717
 30
0.0
 10
761.9451903477475
 20
-583.6843842543478
 30
0.0
 10
767.9438885004456
 20
-578.3780041396973
 30
0.0
 10
773.8804043220297
 20
-572.8590786141085
 30
0.0
 10
779.7470834391129
 20
-567.1347854748053
 30
0.0
 10
785.5363607420595
 20
-561.21256380675
 30
0.0
 10
791.2407697473136
 20
-555.1001048440178
 30
0.0
 10
796.8529519473045
 20
-548.8053424643875
 30
0.0
 10
802.3656661134639
 20
-542.3364433234386
 30
0.0
 10
807.7717975206973
 20
-535.7017966383678
 30
0.0
 10
813.0643670644274
 20
-528.9100036346597
 30
0.0
 10
818.2365402439266
 20
-521.96986667089
 30
0.0
 10
823.2816359880333
 20
-514.8903780584942
 30
0.0
 10
828.1931353014628
 20
-507.6807085944685
 30
0.0
 10
832.9646897117796
 20
-500.3501958258154
 30
0.0
 10
837.5901294987347
 20
-492.908332065148
 30
0.0
 10
842.0634716890245
 20
-485.3647521774679
 30
0.0
 10
846.3789271521302
 20
-477.7292223061958
 30
0.0
 10
850.5309080392469
 20
-470.0116276586574
 30
0.0
 10
854.5140359438839
 20
-462.2219582813665
 30
0.0
 10
858.3231493682823
 20
-454.3702948970457
 30
0.0
 10
861.9533103382137
 20
-446.4667954458101
 30
0.0
 10
865.3998098934859
 20
-438.5216834235678
 30
0.0
 10
868.6581740544095
 20
-430.5452346546777
 30
0.0
 10
871.7241694528075
 20
-422.5477640109739
 30
0.0
 10
874.5938086253191
 20
-414.539612098778
 30
0.0
 10
877.2633549369133
 20
-406.5311319542504
 30
0.0
 10
879.7293272201977
 20
-398.532675721872
 30
0.0
 10
881.9885037838607
 20
-390.5545815419975
 30
0.0
 10
884.037927065482
 20
-382.6071599430849
 30
0.0
 10
885.874904161581
 20
-374.700682514201
 30
0.0
 10
887.4970210331926
 20
-366.8453626533715
 30
0.0
 10
888.9021039826974
 20
-359.0513666404213
 30
0.0
 10
890.0883762865875
 20
-351.3287124504333
 30
0.0
 10
891.053884882094
 20
-343.6875886473069
 30
0.0
 10
891.7986499600781
 20
-336.1371066933357
 30
0.0
 10
892.3166505843875
 20
-328.6899016466083
 30
0.0
 10
892.6079833406608
 20
-321.7669529684475
 30
0.0
 10
892.6410595318745
 20
-317.3768233140844
 30
0.0
 10
892.6560381034974
 20
-315.3887506536813
 30
0.0
  0
SPLINE
  5
16B
330
1F
100
AcDbEntity
  8
0
  6
Continuous
 62
     7
370
    25
100
AcDbSpline
210
0.0
220
0.0
230
1.0
 70
     8
 71
     3
 72
    22
 73
    18
 74
     0
 42
0.00000001
 43
0.00000001
 40
0.0
 40
0.0
 40
0.0
 40
0.0
 40
0.0366365339540026
 40
0.1062332726965163
 40
0.1758344523217314
 40
0.2454360048767529
 40
0.3150366308605258
 40
0.3846349605136612
 40
0.454229327601856
 40
0.5238177475366994
 40
0.593397908233694
 40
0.6629671807650002
 40
0.7325226581902928
 40
0.802061231565441
 40
0.8715797114345215
 40
0.9410750003727687
 40
1.0
 40
1.0
 40
1.0
 40
1.0
 10
892.6560381034974
 20
-315.3887506536813
 30
0.0
 10
892.6497883515609
 20
-314.1332914731784
 30
0.0
 10
892.6316662332791
 20
-310.4928942224681
 30
0.0
 10
892.430322792136
 20
-304.5680487815023
 30
0.0
 10
891.9785692511903
 20
-297.6681563530706
 30
0.0
 10
891.3002305485713
 20
-290.9207828069602
 30
0.0
 10
890.3999570128351
 20
-284.3326924449118
 30
0.0
 10
889.2777956096598
 20
-277.9130792143553
 30
0.0
 10
887.9353961273731
 20
-271.6702060924329
 30
0.0
 10
886.3743682529055
 20
-265.6123087198674
 30
0.0
 10
884.5966737729285
 20
-259.7474045884086
 30
0.0
 10
882.6047214432209
 20
-254.0830912433093
 30
0.0
 10
880.4006155418369
 20
-248.6274683858098
 30
0.0
 10
877.9890829052968
 20
-243.3855667434094
 30
0.0
 10
875.366530120119
 20
-238.3726086866369
 30
0.0
 10
872.7037177727891
 20
-233.8076283654745
 30
0.0
 10
870.8200674291436
 20
-231.0305792595435
 30
0.0
 10
869.9557639998569
 20
-229.7563443286014
 30
0.0
  0
SPLINE
  5
16C
330
1F
100
AcDbEntity
  8
0
  6
Continuous
 62
     7
370
    25
100
AcDbSpline
210
0.0
220
0.0
230
1.0
 70
     8
 71
     3
 72
    20
 73
    16
 74
     0
 42
0.00000001
 43
0.00000001
 40
0.0
 40
0.0
 40
0.0
 40
0.0
 40
0.0335803083877753
 40
0.1149132400525709
 40
0.1961877085825048
 40
0.2774087451005998
 40
0.3585831707090966
 40
0.4397186141572887
 40
0.5208227522295117
 40
0.6019027898139868
 40
0.6829651526873697
 40
0.7640153465858105
 40
0.8450579333757884
 40
0.926096581409654
 40
0.9999999999999999
 40
0.9999999999999999
 40
0.9999999999999999
 40
0.9999999999999999
 10
801.6930174265092
 20
-272.478043939676
 30
0.0
 10
802.05740905562
 20
-272.9665880991744
 30
0.0
 10
803.3043726708921
 20
-274.638406940992
 30
0.0
 10
805.2326530353295
 20
-277.7476860177644
 30
0.0
 10
807.475879544043
 20
-281.7905987750215
 30
0.0
 10
809.5053690413644
 20
-286.0723815966507
 30
0.0
 10
811.3321788185139
 20
-290.5662663481863
 30
0.0
 10
812.9491240570541
 20
-295.2690745646166
 30
0.0
 10
814.3542966410779
 20
-300.1708817800127
 30
0.0
 10
815.5449221591181
 20
-305.263041036106
 30
0.0
 10
816.5184604211197
 20
-310.5363555814947
 30
0.0
 10
817.2744031955746
 20
-315.9803615395419
 30
0.0
 10
817.8060646143587
 20
-321.588051740013
 30
0.0
 10
818.1221454191177
 20
-327.1690438853057
 30
0.0
 10
818.1596867658571
 20
-330.9391692675209
 30
0.0
 10
818.1775930318763
 20
-332.7374230299139
 30
0.0
  0
SPLINE
  5
16D
330
1F
100
AcDbEntity
  8
0
  6
Continuous
 62
     7
370
    25
100
AcDbSpline
210
0.0
220
0.0
230
1.0
 70
     8
 71
     3
 72
    57
 73
    53
 74
     0
 42
0.00000001
 43
0.00000001
 40
0.0
 40
0.0
 40
0.0
 40
0.0
 40
0.0108299757357948
 40
0.0314230138822243
 40
0.0520181465608415
 40
0.0726142696397026
 40
0.0932115587463179
 40
0.1138101138833084
 40
0.1344099758234585
 40
0.155011139693065
 40
0.1756135658855557
 40
0.1962171887037474
 40
0.2168219231133074
 40
0.2374276699527302
 40
0.2580343198993027
 40
0.2786417564442266
 40
0.2992498580870067
 40
0.3198584999216234
 40
0.3404675547552189
 40
0.3610768938743044
 40
0.381686387553092
 40
0.4022959053832684
 40
0.4229052808638216
 40
0.443514374922331
 40
0.4641230564041894
 40
0.4847311944067165
 40
0.5053386587227765
 40
0.5259453205186352
 40
0.5465510533353299
 40
0.5671557345231415
 40
0.5877592472434165
 40
0.608361483202437
 40
0.6289623463188841
 40
0.6495617575688911
 40
0.6701596612998892
 40
0.6907560333528295
 40
0.7113508913757487
 40
0.7319443077390346
 40
0.7525364254557119
 40
0.7731274774397634
 40
0.7937178092592372
 40
0.8143078835021752
 40
0.834898138266547
 40
0.8554893542163823
 40
0.8760825275843068
 40
0.8966788931572038
 40
0.9172799354379517
 40
0.9378873789514234
 40
0.9585031463075121
 40
0.9791292713640833
 40
0.9997677561824371
 40
1.0
 40
1.0
 40
1.0
 40
1.0
 10
818.1775930318763
 20
-332.7374230299139
 30
0.0
 10
818.1714098935395
 20
-333.7839888501951
 30
0.0
 10
818.1534696094116
 20
-336.8205840468642
 30
0.0
 10
817.9540176308819
 20
-341.9434962943745
 30
0.0
 10
817.5063924050231
 20
-348.1342431969729
 30
0.0
 10
816.8344742256644
 20
-354.4284005268419
 30
0.0
 10
815.9432420712707
 20
-360.8117508593213
 30
0.0
 10
814.8332397457596
 20
-367.2729551512334
 30
0.0
 10
813.5067282686638
 20
-373.799735413654
 30
0.0
 10
811.9660359505417
 20
-380.3798930734507
 30
0.0
 10
810.2139950700788
 20
-387.0010682059877
 30
0.0
 10
808.2538180669301
 20
-393.650835894153
 30
0.0
 10
806.0891227514469
 20
-400.3167119440461
 30
0.0
 10
803.723916522041
 20
-406.9861825925889
 30
0.0
 10
801.1625905997652
 20
-413.6467274961227
 30
0.0
 10
798.4099106822134
 20
-420.2858442368095
 30
0.0
 10
795.4710077163769
 20
-426.8910721425403
 30
0.0
 10
792.3513678435204
 20
-433.450016008514
 30
0.0
 10
789.0568218063203
 20
-439.9503695546251
 30
0.0
 10
785.5935337713777
 20
-446.3799386497088
 30
0.0
 10
781.9679896072478
 20
-452.7266642757702
 30
0.0
 10
778.1869868098005
 20
-458.9786416165292
 30
0.0
 10
774.2576204496016
 20
-465.1241455410737
 30
0.0
 10
770.1872694227328
 20
-471.1516536445835
 30
0.0
 10
765.983580106279
 20
-477.0498713690626
 30
0.0
 10
761.6544537280947
 20
-482.8077505155666
 30
0.0
 10
757.2080321987826
 20
-488.4145094603994
 30
0.0
 10
752.6526829902268
 20
-493.8596537627161
 30
0.0
 10
747.9969835712045
 20
-499.1329963517823
 30
0.0
 10
743.2497054001733
 20
-504.2246772728395
 30
0.0
 10
738.4197974687175
 20
-509.1251829700665
 30
0.0
 10
733.5163693808022
 20
-513.8253650833244
 30
0.0
 10
728.5486739427436
 20
-518.3164587314999
 30
0.0
 10
723.5260892266488
 20
-522.5901002481742
 30
0.0
 10
718.458100056002
 20
-526.6383443242404
 30
0.0
 10
713.3542788476848
 20
-530.4536804929634
 30
0.0
 10
708.2242657279678
 20
-534.0290488721524
 30
0.0
 10
703.077747836402
 20
-537.3578550214655
 30
0.0
 10
697.9244376970847
 20
-540.4339837962314
 30
0.0
 10
692.7740506581968
 20
-543.2518117390243
 30
0.0
 10
687.6362828202439
 20
-545.8062175971818
 30
0.0
 10
682.5208029303799
 20
-548.0925827458992
 30
0.0
 10
677.43721126329
 20
-550.1068144768458
 30
0.0
 10
672.3950223106611
 20
-551.8453251324117
 30
0.0
 10
667.4035831378411
 20
-553.3051337510838
 30
0.0
 10
662.4722090982176
 20
-554.4834918397908
 30
0.0
 10
657.6096027420838
 20
-555.3792347193161
 30
0.0
 10
652.8259117158527
 20
-555.9876895979182
 30
0.0
 10
648.124953170457
 20
-556.3196200655684
 30
0.0
 10
643.5331909732963
 20
-556.3303932582633
 30
0.0
 10
640.4893464800839
 20
-556.2325811740614
 30
0.0
 10
639.0117081072506
 20
-556.0520973383894
 30
0.0
 10
638.9952653475046
 20
-556.0500889631317
 30
0.0
  0
SPLINE
  5
16E
330
1F
100
AcDbEntity
  8
0
  6
Continuous
 62
     7
370
    25
100
AcDbSpline
210
0.0
220
0.0
230
1.0
 70
     8
 71
     3
 72
    13
 73
     9
 74
     0
 42
0.00000001
 43
0.00000001
 40
0.0
 40
0.0
 40
0.0
 40
0.0
 40
0.0411257184067022
 40
0.2647860300621355
 40
0.4837070278397539
 40
0.6934501906718227
 40
0.8984407557907684
 40
1.0
 40
1.0
 40
1.0
 40
1.0
 10
837.5178943554702
 20
-403.2068709527869
 30
0.0
 10
837.5759388318305
 20
-403.2347567627005
 30
0.0
 10
837.949655500085
 20
-403.4142982561538
 30
0.0
 10
838.487736548529
 20
-403.9982919085232
 30
0.0
 10
839.1106825989569
 20
-404.9843543376922
 30
0.0
 10
839.5224933903248
 20
-406.227237602982
 30
0.0
 10
839.7055088562553
 20
-407.4102183898352
 30
0.0
 10
839.7213443728172
 20
-408.186013135837
 30
0.0
 10
839.7265906429004
 20
-408.4430321443894
 30
0.0
  0
SPLINE
  5
16F
330
1F
100
AcDbEntity
  8
0
  6
Continuous
 62
     7
370
    25
100
AcDbSpline
210
0.0
220
0.0
230
1.0
 70
     8
 71
     3
 72
    24
 73
    20
 74
     0
 42
0.00000001
 43
0.00000001
 40
0.0
 40
0.0
 40
0.0
 40
0.0
 40
0.0333596989496882
 40
0.0973590680872703
 40
0.1615522092678932
 40
0.2259120775685241
 40
0.2904056653955249
 40
0.3549742039410229
 40
0.4195505619021595
 40
0.4840436727488096
 40
0.5483812883138602
 40
0.612498253622082
 40
0.676351998218072
 40
0.7399675412187952
 40
0.8035081668662098
 40
0.8673286518428229
 40
0.9323398086381276
 40
0.9999214903944897
 40
1.0
 40
1.0
 40
1.0
 40
1.0
 10
839.7265906429004
 20
-408.4430321443894
 30
0.0
 10
839.7208820246343
 20
-408.7189240740877
 30
0.0
 10
839.704221629848
 20
-409.52410463668
 30
0.0
 10
839.5160292305413
 20
-410.9575284835393
 30
0.0
 10
839.0922477206647
 20
-412.7339371877374
 30
0.0
 10
838.4628511935186
 20
-414.5463334039709
 30
0.0
 10
837.6456176520018
 20
-416.344306434872
 30
0.0
 10
836.6596375238279
 20
-418.0814071564861
 30
0.0
 10
835.530742270605
 20
-419.7116863282863
 30
0.0
 10
834.2892182006345
 20
-421.1925595798179
 30
0.0
 10
832.9694715391363
 20
-422.4858835834056
 30
0.0
 10
831.6088738772058
 20
-423.5596318572273
 30
0.0
 10
830.2470059970416
 20
-424.3889133476847
 30
0.0
 10
828.923469594848
 20
-424.958756148299
 30
0.0
 10
827.6781931921129
 20
-425.2609068430038
 30
0.0
 10
826.5363911353822
 20
-425.3112702059324
 30
0.0
 10
825.5347730956829
 20
-425.080467446741
 30
0.0
 10
824.9142120058416
 20
-424.8471946178109
 30
0.0
 10
824.663246768207
 20
-424.6079430819192
 30
0.0
 10
824.6629555603134
 20
-424.6076654660372
 30
0.0
  0
SPLINE
  5
170
330
1F
100
AcDbEntity
  8
0
  6
Continuous
 62
     7
370
    25
100
AcDbSpline
210
0.0
220
0.0
230
1.0
 70
     8
 71
     3
 72
    13
 73
     9
 74
     0
 42
0.00000001
 43
0.00000001
 40
0.0
 40
0.0
 40
0.0
 40
0.0
 40
0.0411257184067676
 40
0.2647860300622098
 40
0.4837070278398543
 40
0.6934501906719325
 40
0.898440755790916
 40
1.0
 40
1.0
 40
1.0
 40
1.0
 10
781.6388625178328
 20
-499.992192889277
 30
0.0
 10
781.6969069941932
 20
-500.0200786991906
 30
0.0
 10
782.0706236624477
 20
-500.199620192644
 30
0.0
 10
782.6087047108916
 20
-500.7836138450137
 30
0.0
 10
783.2316507613195
 20
-501.7696762741828
 30
0.0
 10
783.6434615526872
 20
-503.0125595394728
 30
0.0
 10
783.8264770186175
 20
-504.1955403263256
 30
0.0
 10
783.8423125351794
 20
-504.9713350723273
 30
0.0
 10
783.8475588052626
 20
-505.2283540808793
 30
0.0
  0
SPLINE
  5
171
330
1F
100
AcDbEntity
  8
0
  6
Continuous
 62
     7
370
    25
100
AcDbSpline
210
0.0
220
0.0
230
1.0
 70
     8
 71
     3
 72
    24
 73
    20
 74
     0
 42
0.00000001
 43
0.00000001
 40
0.0
 40
0.0
 40
0.0
 40
0.0
 40
0.0333596989496872
 40
0.0973590680872768
 40
0.161552209267893
 40
0.2259120775685209
 40
0.2904056653955154
 40
0.354974203941016
 40
0.4195505619021492
 40
0.4840436727488001
 40
0.5483812883138489
 40
0.612498253622064
 40
0.6763519982180523
 40
0.7399675412187795
 40
0.8035081668662009
 40
0.8673286518428057
 40
0.9323398086381091
 40
0.9999214903944743
 40
1.0
 40
1.0
 40
1.0
 40
1.0
 10
783.8475588052626
 20
-505.2283540808793
 30
0.0
 10
783.8418501869965
 20
-505.5042460105775
 30
0.0
 10
783.8251897922102
 20
-506.3094265731699
 30
0.0
 10
783.6369973929035
 20
-507.7428504200293
 30
0.0
 10
783.2132158830269
 20
-509.5192591242275
 30
0.0
 10
782.5838193558807
 20
-511.3316553404609
 30
0.0
 10
781.7665858143639
 20
-513.129628371362
 30
0.0
 10
780.78060568619
 20
-514.866729092976
 30
0.0
 10
779.651710432967
 20
-516.4970082647764
 30
0.0
 10
778.4101863629965
 20
-517.9778815163079
 30
0.0
 10
777.0904397014982
 20
-519.2712055198956
 30
0.0
 10
775.7298420395678
 20
-520.3449537937173
 30
0.0
 10
774.3679741594035
 20
-521.1742352841746
 30
0.0
 10
773.0444377572097
 20
-521.744078084789
 30
0.0
 10
771.7991613544748
 20
-522.0462287794938
 30
0.0
 10
770.6573592977435
 20
-522.0965921424213
 30
0.0
 10
769.6557412580469
 20
-521.8657893832338
 30
0.0
 10
769.0351801681983
 20
-521.6325165542935
 30
0.0
 10
768.7842149305687
 20
-521.3932650184088
 30
0.0
 10
768.7839237226751
 20
-521.3929874025267
 30
0.0
  0
SPLINE
  5
172
330
1F
100
AcDbEntity
  8
0
  6
Continuous
 62
     7
370
    25
100
AcDbSpline
210
0.0
220
0.0
230
1.0
 70
     8
 71
     3
 72
    70
 73
    66
 74
     0
 42
0.00000001
 43
0.00000001
 40
0.0
 40
0.0
 40
0.0
 40
0.0
 40
0.0124963713510082
 40
0.0286704287093782
 40
0.0448326754821876
 40
0.0609839723658363
 40
0.0771255968440483
 40
0.0932590378618948
 40
0.1093858314947951
 40
0.125507444444472
 40
0.1416252019098672
 40
0.1577402512824185
 40
0.1738535517991669
 40
0.1899658811629907
 40
0.2060778519584772
 40
0.2221898210964722
 40
0.238302143204277
 40
0.2544150957827289
 40
0.2705288685577988
 40
0.2866435809671065
 40
0.3027592970143847
 40
0.3188760375807929
 40
0.3349937904336746
 40
0.3511125182339148
 40
0.3672321648526423
 40
0.3833526602895678
 40
0.399473924453345
 40
0.4155958700279387
 40
0.4317184046132652
 40
0.4478414322957344
 40
0.4639648547762075
 40
0.4800885721593574
 40
0.4962124834895011
 40
0.5123364871031868
 40
0.5284604774917903
 40
0.5445843214655434
 40
0.5607079164140748
 40
0.5768311597566753
 40
0.5929539491918083
 40
0.6090761830899641
 40
0.6251977610873931
 40
0.641318584955408
 40
0.6574385598358613
 40
0.6735575959541452
 40
0.6896756109460942
 40
0.7057925329654285
 40
0.7219083047727033
 40
0.7380228890443096
 40
0.7541362751773815
 40
0.7702484878980776
 40
0.7863595979962174
 40
0.8024697354925399
 40
0.8185791054705766
 40
0.8346880066358432
 40
0.8507967885688706
 40
0.8669058676425988
 40
0.8830158998927815
 40
0.8991277156691058
 40
0.9152423356137007
 40
0.9313609756061515
 40
0.9474850330550272
 40
0.9636160452177641
 40
0.9797556096744617
 40
0.9959052589813383
 40
1.0
 40
1.0
 40
1.0
 40
1.0
 10
619.1629446695433
 20
-546.2995168972421
 30
0.0
 10
618.4644220458691
 20
-545.406634439106
 30
0.0
 10
616.8618013713225
 20
-543.3580939354034
 30
0.0
 10
614.5798989566558
 20
-539.8655490990639
 30
0.0
 10
612.2849534366574
 20
-535.8814456544794
 30
0.0
 10
610.1970649385372
 20
-531.6633274504036
 30
0.0
 10
608.3123761792303
 20
-527.2289803360662
 30
0.0
 10
606.6362713453818
 20
-522.5838597121113
 30
0.0
 10
605.1712351771367
 20
-517.737167274979
 30
0.0
 10
603.9201019576096
 20
-512.6975593596954
 30
0.0
 10
602.8851753464841
 20
-507.4743018311926
 30
0.0
 10
602.0684484374467
 20
-502.0769586089529
 30
0.0
 10
601.4715271763074
 20
-496.5154647924393
 30
0.0
 10
601.0956336553867
 20
-490.8000897867419
 30
0.0
 10
600.9415903572907
 20
-484.9414378993122
 30
0.0
 10
601.0098093920033
 20
-478.9504118666413
 30
0.0
 10
601.3002856780262
 20
-472.8381861334732
 30
0.0
 10
601.8125952716332
 20
-466.6161673326405
 30
0.0
 10
602.545893793741
 20
-460.2959840158311
 30
0.0
 10
603.4989156310949
 20
-453.889464813495
 30
0.0
 10
604.669974892164
 20
-447.4086127241905
 30
0.0
 10
606.0569678530443
 20
-440.8655794832511
 30
0.0
 10
607.6573766888982
 20
-434.2726401093415
 30
0.0
 10
609.468274324225
 20
-427.6421676730327
 30
0.0
 10
611.4863302671984
 20
-420.9866083033462
 30
0.0
 10
613.7078173222642
 20
-414.3184564324749
 30
0.0
 10
616.1286190987686
 20
-407.6502302726244
 30
0.0
 10
618.7442382520235
 20
-400.9944475181806
 30
0.0
 10
621.5498054073911
 20
-394.3636012688686
 30
0.0
 10
624.5400887284183
 20
-387.7701361735948
 30
0.0
 10
627.7095040975488
 20
-381.2264247991851
 30
0.0
 10
631.0521258831255
 20
-374.744744232683
 30
0.0
 10
634.5616982700117
 20
-368.3372529296929
 30
0.0
 10
638.2316468778257
 20
-362.0159682648297
 30
0.0
 10
642.055088938369
 20
-355.7927474038932
 30
0.0
 10
646.0248482183767
 20
-349.6792607162008
 30
0.0
 10
650.1334687956393
 20
-343.6869692621826
 30
0.0
 10
654.3732315529273
 20
-337.8270999175867
 30
0.0
 10
658.736166096644
 20
-332.1106280442719
 30
0.0
 10
663.2140655565083
 20
-326.5482565942798
 30
0.0
 10
667.7985018319746
 20
-321.150395618109
 30
0.0
 10
672.4808412808482
 20
-315.9271421994461
 30
0.0
 10
677.2522608518433
 20
-310.888260837209
 30
0.0
 10
682.103764669728
 20
-306.0431642968002
 30
0.0
 10
687.0262010905992
 20
-301.4008949547153
 30
0.0
 10
692.0102802556004
 20
-296.9701066653025
 30
0.0
 10
697.0465921841076
 20
-292.75904718662
 30
0.0
 10
702.1256254618069
 20
-288.7755412151387
 30
0.0
 10
707.2377865937508
 20
-285.0269740998037
 30
0.0
 10
712.3734201080326
 20
-281.5202763313901
 30
0.0
 10
717.522829500394
 20
-278.2619089564747
 30
0.0
 10
722.6762991318238
 20
-275.2578500713861
 30
0.0
 10
727.8241171001322
 20
-272.5135828017393
 30
0.0
 10
732.9565925751469
 20
-270.0340878574436
 30
0.0
 10
738.0640729852604
 20
-267.8238378169419
 30
0.0
 10
743.1369808016099
 20
-265.8867795819027
 30
0.0
 10
748.1658393008029
 20
-264.226345962267
 30
0.0
 10
753.1413326335114
 20
-262.8453920983617
 30
0.0
 10
758.0542224154003
 20
-261.7464435629369
 30
0.0
 10
762.8957450953112
 20
-260.9308154127287
 30
0.0
 10
767.6562353110066
 20
-260.4019543491311
 30
0.0
 10
772.3303503336604
 20
-260.1530327299718
 30
0.0
 10
776.8976084203213
 20
-260.213368599105
 30
0.0
 10
780.2750114741921
 20
-260.4099403541609
 30
0.0
 10
782.0888565210228
 20
-260.6772533558196
 30
0.0
 10
782.4557347324838
 20
-260.7313215443455
 30
0.0
  0
SPLINE
  5
173
330
1F
100
AcDbEntity
  8
0
  6
Continuous
 62
     7
370
    25
100
AcDbSpline
210
0.0
220
0.0
230
1.0
 70
     8
 71
     3
 72
    13
 73
     9
 74
     0
 42
0.00000001
 43
0.00000001
 40
0.0
 40
0.0
 40
0.0
 40
0.0
 40
0.041125718406739
 40
0.2647860300621829
 40
0.4837070278398179
 40
0.693450190671888
 40
0.8984407557908705
 40
1.0
 40
1.0
 40
1.0
 40
1.0
 10
857.971039546927
 20
-303.2539409171887
 30
0.0
 10
858.0290840232876
 20
-303.2818267271023
 30
0.0
 10
858.4028006915419
 20
-303.4613682205557
 30
0.0
 10
858.9408817399859
 20
-304.0453618729252
 30
0.0
 10
859.5638277904138
 20
-305.0314243020943
 30
0.0
 10
859.9756385817817
 20
-306.2743075673843
 30
0.0
 10
860.1586540477122
 20
-307.4572883542372
 30
0.0
 10
860.174489564274
 20
-308.233083100239
 30
0.0
 10
860.1797358343573
 20
-308.4901021087911
 30
0.0
  0
SPLINE
  5
174
330
1F
100
AcDbEntity
  8
0
  6
Continuous
 62
     7
370
    25
100
AcDbSpline
210
0.0
220
0.0
230
1.0
 70
     8
 71
     3
 72
    24
 73
    20
 74
     0
 42
0.00000001
 43
0.00000001
 40
0.0
 40
0.0
 40
0.0
 40
0.0
 40
0.0333596989496877
 40
0.0973590680872685
 40
0.1615522092678901
 40
0.2259120775685194
 40
0.2904056653955137
 40
0.3549742039410161
 40
0.4195505619021514
 40
0.4840436727488012
 40
0.5483812883138512
 40
0.6124982536220744
 40
0.6763519982180597
 40
0.7399675412187852
 40
0.8035081668662006
 40
0.8673286518428112
 40
0.9323398086381124
 40
0.9999214903944772
 40
1.0
 40
1.0
 40
1.0
 40
1.0
 10
860.1797358343573
 20
-308.4901021087911
 30
0.0
 10
860.1740272160912
 20
-308.7659940384893
 30
0.0
 10
860.1573668213048
 20
-309.5711746010816
 30
0.0
 10
859.9691744219981
 20
-311.004598447941
 30
0.0
 10
859.5453929121215
 20
-312.7810071521391
 30
0.0
 10
858.9159963849754
 20
-314.5934033683725
 30
0.0
 10
858.0987628434585
 20
-316.3913763992736
 30
0.0
 10
857.1127827152847
 20
-318.1284771208877
 30
0.0
 10
855.9838874620618
 20
-319.758756292688
 30
0.0
 10
854.7423633920912
 20
-321.2396295442196
 30
0.0
 10
853.422616730593
 20
-322.5329535478073
 30
0.0
 10
852.0620190686625
 20
-323.6067018216291
 30
0.0
 10
850.7001511884982
 20
-324.4359833120864
 30
0.0
 10
849.3766147863048
 20
-325.0058261127007
 30
0.0
 10
848.1313383835693
 20
-325.3079768074056
 30
0.0
 10
846.9895363268398
 20
-325.3583401703334
 30
0.0
 10
845.9879182871362
 20
-325.1275374111449
 30
0.0
 10
845.367357197306
 20
-324.8942645822073
 30
0.0
 10
845.1163919596635
 20
-324.6550130463208
 30
0.0
 10
845.1161007517699
 20
-324.6547354304387
 30
0.0
  0
SPLINE
  5
175
330
1F
100
AcDbEntity
  8
0
  6
Continuous
 62
     7
370
    25
100
AcDbSpline
210
0.0
220
0.0
230
1.0
 70
     8
 71
     3
 72
    13
 73
     9
 74
     0
 42
0.00000001
 43
0.00000001
 40
0.0
 40
0.0
 40
0.0
 40
0.0
 40
0.0411257184066625
 40
0.2647860300620907
 40
0.4837070278397058
 40
0.693450190671763
 40
0.8984407557907235
 40
0.9999999999999999
 40
0.9999999999999999
 40
0.9999999999999999
 40
0.9999999999999999
 10
705.3066854887413
 20
-567.6763578745894
 30
0.0
 10
705.3647299651018
 20
-567.7042436845028
 30
0.0
 10
705.7384466333561
 20
-567.8837851779562
 30
0.0
 10
706.2765276818001
 20
-568.4677788303256
 30
0.0
 10
706.8994737322281
 20
-569.4538412594944
 30
0.0
 10
707.3112845235959
 20
-570.6967245247843
 30
0.0
 10
707.4942999895266
 20
-571.8797053116374
 30
0.0
 10
707.5101355060884
 20
-572.6555000576394
 30
0.0
 10
707.5153817761717
 20
-572.9125190661919
 30
0.0
  0
SPLINE
  5
176
330
1F
100
AcDbEntity
  8
0
  6
Continuous
 62
     7
370
    25
100
AcDbSpline
210
0.0
220
0.0
230
1.0
 70
     8
 71
     3
 72
    24
 73
    20
 74
     0
 42
0.00000001
 43
0.00000001
 40
0.0
 40
0.0
 40
0.0
 40
0.0
 40
0.0333596989496879
 40
0.0973590680872733
 40
0.1615522092678944
 40
0.2259120775685241
 40
0.2904056653955215
 40
0.3549742039410224
 40
0.4195505619021565
 40
0.4840436727488079
 40
0.5483812883138566
 40
0.6124982536220763
 40
0.6763519982180644
 40
0.7399675412187853
 40
0.8035081668662007
 40
0.8673286518428055
 40
0.9323398086381097
 40
0.9999214903944764
 40
0.9999999999999999
 40
0.9999999999999999
 40
0.9999999999999999
 40
0.9999999999999999
 10
707.5153817761717
 20
-572.9125190661919
 30
0.0
 10
707.5096731579056
 20
-573.1884109958901
 30
0.0
 10
707.4930127631193
 20
-573.9935915584825
 30
0.0
 10
707.3048203638126
 20
-575.4270154053418
 30
0.0
 10
706.8810388539359
 20
-577.20342410954
 30
0.0
 10
706.2516423267898
 20
-579.0158203257736
 30
0.0
 10
705.4344087852729
 20
-580.8137933566746
 30
0.0
 10
704.4484286570992
 20
-582.5508940782887
 30
0.0
 10
703.3195334038761
 20
-584.181173250089
 30
0.0
 10
702.0780093339055
 20
-585.6620465016206
 30
0.0
 10
700.7582626724072
 20
-586.9553705052082
 30
0.0
 10
699.397665010477
 20
-588.0291187790299
 30
0.0
 10
698.0357971303127
 20
-588.8584002694872
 30
0.0
 10
696.7122607281191
 20
-589.4282430701016
 30
0.0
 10
695.466984325384
 20
-589.7303937648057
 30
0.0
 10
694.3251822686534
 20
-589.7807571277367
 30
0.0
 10
693.3235642289546
 20
-589.5499543685361
 30
0.0
 10
692.7030031391114
 20
-589.31668153963
 30
0.0
 10
692.452037901478
 20
-589.0774300037216
 30
0.0
 10
692.4517466935845
 20
-589.0771523878395
 30
0.0
  0
SPLINE
  5
177
330
1F
100
AcDbEntity
  8
0
  6
Continuous
 62
     7
370
    25
100
AcDbSpline
210
0.0
220
0.0
230
1.0
 70
     8
 71
     3
 72
    13
 73
     9
 74
     0
 42
0.00000001
 43
0.00000001
 40
0.0
 40
0.0
 40
0.0
 40
0.0
 40
0.0411257184066791
 40
0.2647860300620844
 40
0.4837070278397006
 40
0.6934501906717672
 40
0.8984407557907247
 40
1.0
 40
1.0
 40
1.0
 40
1.0
 10
837.5178943554752
 20
-226.9157096666448
 30
0.0
 10
837.5759388318356
 20
-226.9435954765583
 30
0.0
 10
837.94965550009
 20
-227.1231369700115
 30
0.0
 10
838.4877365485339
 20
-227.707130622381
 30
0.0
 10
839.1106825989618
 20
-228.6931930515499
 30
0.0
 10
839.5224933903298
 20
-229.9360763168396
 30
0.0
 10
839.7055088562603
 20
-231.1190571036928
 30
0.0
 10
839.7213443728223
 20
-231.8948518496948
 30
0.0
 10
839.7265906429054
 20
-232.1518708582473
 30
0.0
  0
SPLINE
  5
178
330
1F
100
AcDbEntity
  8
0
  6
Continuous
 62
     7
370
    25
100
AcDbSpline
210
0.0
220
0.0
230
1.0
 70
     8
 71
     3
 72
    24
 73
    20
 74
     0
 42
0.00000001
 43
0.00000001
 40
0.0
 40
0.0
 40
0.0
 40
0.0
 40
0.0333596989496882
 40
0.0973590680872703
 40
0.1615522092678932
 40
0.2259120775685241
 40
0.2904056653955249
 40
0.3549742039410229
 40
0.4195505619021595
 40
0.4840436727488096
 40
0.5483812883138602
 40
0.612498253622082
 40
0.676351998218072
 40
0.7399675412187952
 40
0.8035081668662098
 40
0.8673286518428229
 40
0.9323398086381276
 40
0.9999214903944897
 40
1.0
 40
1.0
 40
1.0
 40
1.0
 10
839.7265906429054
 20
-232.1518708582473
 30
0.0
 10
839.7208820246393
 20
-232.4277627879455
 30
0.0
 10
839.704221629853
 20
-233.2329433505379
 30
0.0
 10
839.5160292305463
 20
-234.6663671973972
 30
0.0
 10
839.0922477206698
 20
-236.4427759015953
 30
0.0
 10
838.4628511935238
 20
-238.2551721178287
 30
0.0
 10
837.6456176520068
 20
-240.0531451487299
 30
0.0
 10
836.659637523833
 20
-241.790245870344
 30
0.0
 10
835.53074227061
 20
-243.4205250421442
 30
0.0
 10
834.2892182006395
 20
-244.9013982936757
 30
0.0
 10
832.9694715391413
 20
-246.1947222972635
 30
0.0
 10
831.6088738772108
 20
-247.2684705710852
 30
0.0
 10
830.2470059970467
 20
-248.0977520615425
 30
0.0
 10
828.923469594853
 20
-248.667594862157
 30
0.0
 10
827.678193192118
 20
-248.9697455568614
 30
0.0
 10
826.5363911353867
 20
-249.0201089197913
 30
0.0
 10
825.5347730956901
 20
-248.7893061605949
 30
0.0
 10
824.9142120058416
 20
-248.5560333316776
 30
0.0
 10
824.663246768212
 20
-248.3167817957771
 30
0.0
 10
824.6629555603184
 20
-248.3165041798951
 30
0.0
  0
SPLINE
  5
179
330
1F
100
AcDbEntity
  8
0
  6
Continuous
 62
     7
370
    25
100
AcDbSpline
210
0.0
220
0.0
230
1.0
 70
     8
 71
     3
 72
    13
 73
     9
 74
     0
 42
0.00000001
 43
0.00000001
 40
0.0
 40
0.0
 40
0.0
 40
0.0
 40
0.0411257184067666
 40
0.264786030062209
 40
0.4837070278398537
 40
0.6934501906719321
 40
0.8984407557909159
 40
1.0
 40
1.0
 40
1.0
 40
1.0
 10
628.9745084596523
 20
-588.1234485605356
 30
0.0
 10
629.0325529360128
 20
-588.1513343704493
 30
0.0
 10
629.4062696042673
 20
-588.3308758639026
 30
0.0
 10
629.9443506527111
 20
-588.9148695162723
 30
0.0
 10
630.567296703139
 20
-589.9009319454415
 30
0.0
 10
630.9791074945068
 20
-591.1438152107314
 30
0.0
 10
631.1621229604372
 20
-592.3267959975844
 30
0.0
 10
631.1779584769989
 20
-593.1025907435859
 30
0.0
 10
631.1832047470822
 20
-593.3596097521379
 30
0.0
  0
SPLINE
  5
17A
330
1F
100
AcDbEntity
  8
0
  6
Continuous
 62
     7
370
    25
100
AcDbSpline
210
0.0
220
0.0
230
1.0
 70
     8
 71
     3
 72
    24
 73
    20
 74
     0
 42
0.00000001
 43
0.00000001
 40
0.0
 40
0.0
 40
0.0
 40
0.0
 40
0.0333596989496872
 40
0.0973590680872768
 40
0.161552209267893
 40
0.2259120775685209
 40
0.2904056653955154
 40
0.354974203941016
 40
0.4195505619021492
 40
0.4840436727488001
 40
0.5483812883138489
 40
0.612498253622064
 40
0.6763519982180523
 40
0.7399675412187795
 40
0.8035081668662009
 40
0.8673286518428057
 40
0.9323398086381091
 40
0.9999214903944743
 40
1.0
 40
1.0
 40
1.0
 40
1.0
 10
631.1832047470822
 20
-593.3596097521379
 30
0.0
 10
631.1774961288161
 20
-593.6355016818362
 30
0.0
 10
631.1608357340297
 20
-594.4406822444286
 30
0.0
 10
630.9726433347231
 20
-595.874106091288
 30
0.0
 10
630.5488618248465
 20
-597.6505147954862
 30
0.0
 10
629.9194652977003
 20
-599.4629110117196
 30
0.0
 10
629.1022317561834
 20
-601.2608840426207
 30
0.0
 10
628.1162516280095
 20
-602.9979847642347
 30
0.0
 10
626.9873563747866
 20
-604.6282639360351
 30
0.0
 10
625.7458323048161
 20
-606.1091371875666
 30
0.0
 10
624.4260856433178
 20
-607.4024611911543
 30
0.0
 10
623.0654879813874
 20
-608.476209464976
 30
0.0
 10
621.7036201012231
 20
-609.3054909554331
 30
0.0
 10
620.3800836990295
 20
-609.8753337560478
 30
0.0
 10
619.1348072962941
 20
-610.1774844507521
 30
0.0
 10
617.9930052395639
 20
-610.2278478136814
 30
0.0
 10
616.9913871998633
 20
-609.9970450544873
 30
0.0
 10
616.3708261100251
 20
-609.7637722255637
 30
0.0
 10
616.1198608723882
 20
-609.5245206896675
 30
0.0
 10
616.1195696644946
 20
-609.5242430737854
 30
0.0
  0
SPLINE
  5
17B
330
1F
100
AcDbEntity
  8
0
  6
Continuous
 62
     7
370
    25
100
AcDbSpline
210
0.0
220
0.0
230
1.0
 70
     8
 71
     3
 72
    13
 73
     9
 74
     0
 42
0.00000001
 43
0.00000001
 40
0.0
 40
0.0
 40
0.0
 40
0.0
 40
0.0411257184067685
 40
0.2647860300622104
 40
0.4837070278398546
 40
0.6934501906719327
 40
0.898440755790916
 40
1.0
 40
1.0
 40
1.0
 40
1.0
 10
781.6388625178415
 20
-194.6469446163593
 30
0.0
 10
781.696906994202
 20
-194.6748304262729
 30
0.0
 10
782.0706236624563
 20
-194.8543719197264
 30
0.0
 10
782.6087047109004
 20
-195.438365572096
 30
0.0
 10
783.2316507613283
 20
-196.4244280012651
 30
0.0
 10
783.643461552696
 20
-197.6673112665552
 30
0.0
 10
783.8264770186263
 20
-198.850292053408
 30
0.0
 10
783.8423125351882
 20
-199.6260867994096
 30
0.0
 10
783.8475588052713
 20
-199.8831058079615
 30
0.0
  0
SPLINE
  5
17C
330
1F
100
AcDbEntity
  8
0
  6
Continuous
 62
     7
370
    25
100
AcDbSpline
210
0.0
220
0.0
230
1.0
 70
     8
 71
     3
 72
    24
 73
    20
 74
     0
 42
0.00000001
 43
0.00000001
 40
0.0
 40
0.0
 40
0.0
 40
0.0
 40
0.0333596989496872
 40
0.0973590680872768
 40
0.1615522092678931
 40
0.2259120775685211
 40
0.2904056653955156
 40
0.3549742039410162
 40
0.4195505619021495
 40
0.4840436727488004
 40
0.5483812883138492
 40
0.6124982536220644
 40
0.6763519982180527
 40
0.73996754121878
 40
0.8035081668662014
 40
0.8673286518428063
 40
0.9323398086381096
 40
0.999921490394475
 40
1.0
 40
1.0
 40
1.0
 40
1.0
 10
783.8475588052713
 20
-199.8831058079615
 30
0.0
 10
783.8418501870052
 20
-200.1589977376598
 30
0.0
 10
783.8251897922189
 20
-200.9641783002522
 30
0.0
 10
783.6369973929122
 20
-202.3976021471116
 30
0.0
 10
783.2132158830356
 20
-204.1740108513098
 30
0.0
 10
782.5838193558895
 20
-205.9864070675432
 30
0.0
 10
781.7665858143727
 20
-207.7843800984442
 30
0.0
 10
780.7806056861988
 20
-209.5214808200584
 30
0.0
 10
779.6517104329757
 20
-211.1517599918587
 30
0.0
 10
778.4101863630052
 20
-212.6326332433902
 30
0.0
 10
777.090439701507
 20
-213.9259572469779
 30
0.0
 10
775.7298420395765
 20
-214.9997055207995
 30
0.0
 10
774.3679741594123
 20
-215.8289870112569
 30
0.0
 10
773.0444377572186
 20
-216.3988298118712
 30
0.0
 10
771.7991613544835
 20
-216.7009805065763
 30
0.0
 10
770.6573592977526
 20
-216.7513438695032
 30
0.0
 10
769.6557412580548
 20
-216.5205411103177
 30
0.0
 10
769.0351801682092
 20
-216.2872682813723
 30
0.0
 10
768.7842149305775
 20
-216.048016745491
 30
0.0
 10
768.7839237226839
 20
-216.047739129609
 30
0.0
  0
SPLINE
  5
17D
330
1F
100
AcDbEntity
  8
0
  6
Continuous
 62
     7
370
    25
100
AcDbSpline
210
0.0
220
0.0
230
1.0
 70
     8
 71
     3
 72
    13
 73
     9
 74
     0
 42
0.00000001
 43
0.00000001
 40
0.0
 40
0.0
 40
0.0
 40
0.0
 40
0.041125718406679
 40
0.2647860300620843
 40
0.4837070278397005
 40
0.693450190671767
 40
0.8984407557907247
 40
1.0
 40
1.0
 40
1.0
 40
1.0
 10
573.0954766220177
 20
-555.8546835102499
 30
0.0
 10
573.1535210983783
 20
-555.8825693201633
 30
0.0
 10
573.5272377666325
 20
-556.0621108136165
 30
0.0
 10
574.0653188150764
 20
-556.6461044659859
 30
0.0
 10
574.6882648655044
 20
-557.6321668951547
 30
0.0
 10
575.1000756568724
 20
-558.8750501604445
 30
0.0
 10
575.2830911228028
 20
-560.0580309472978
 30
0.0
 10
575.2989266393648
 20
-560.8338256932999
 30
0.0
 10
575.304172909448
 20
-561.0908447018523
 30
0.0
  0
SPLINE
  5
17E
330
1F
100
AcDbEntity
  8
0
  6
Continuous
 62
     7
370
    25
100
AcDbSpline
210
0.0
220
0.0
230
1.0
 70
     8
 71
     3
 72
    24
 73
    20
 74
     0
 42
0.00000001
 43
0.00000001
 40
0.0
 40
0.0
 40
0.0
 40
0.0
 40
0.0333596989496882
 40
0.0973590680872703
 40
0.1615522092678932
 40
0.2259120775685241
 40
0.2904056653955249
 40
0.3549742039410229
 40
0.4195505619021595
 40
0.4840436727488096
 40
0.5483812883138602
 40
0.612498253622082
 40
0.676351998218072
 40
0.7399675412187952
 40
0.8035081668662098
 40
0.8673286518428229
 40
0.9323398086381276
 40
0.9999214903944897
 40
1.0
 40
1.0
 40
1.0
 40
1.0
 10
575.304172909448
 20
-561.0908447018522
 30
0.0
 10
575.298464291182
 20
-561.3667366315505
 30
0.0
 10
575.2818038963956
 20
-562.1719171941428
 30
0.0
 10
575.0936114970889
 20
-563.6053410410021
 30
0.0
 10
574.6698299872124
 20
-565.3817497452003
 30
0.0
 10
574.0404334600662
 20
-567.1941459614338
 30
0.0
 10
573.2231999185494
 20
-568.9921189923347
 30
0.0
 10
572.2372197903755
 20
-570.7292197139489
 30
0.0
 10
571.1083245371525
 20
-572.3594988857492
 30
0.0
 10
569.8668004671821
 20
-573.8403721372807
 30
0.0
 10
568.5470538056838
 20
-575.1336961408684
 30
0.0
 10
567.1864561437534
 20
-576.20744441469
 30
0.0
 10
565.824588263589
 20
-577.0367259051476
 30
0.0
 10
564.5010518613958
 20
-577.6065687057619
 30
0.0
 10
563.2557754586602
 20
-577.9087194004666
 30
0.0
 10
562.1139734019309
 20
-577.9590827633951
 30
0.0
 10
561.1123553622265
 20
-577.7282800042038
 30
0.0
 10
560.4917942723981
 20
-577.4950071752737
 30
0.0
 10
560.2408290347545
 20
-577.2557556393821
 30
0.0
 10
560.240537826861
 20
-577.2554780235001
 30
0.0
  0
SPLINE
  5
17F
330
1F
100
AcDbEntity
  8
0
  6
Continuous
 62
     7
370
    25
100
AcDbSpline
210
0.0
220
0.0
230
1.0
 70
     8
 71
     3
 72
    13
 73
     9
 74
     0
 42
0.00000001
 43
0.00000001
 40
0.0
 40
0.0
 40
0.0
 40
0.0
 40
0.0411257184067003
 40
0.2647860300621359
 40
0.4837070278397574
 40
0.6934501906718171
 40
0.8984407557907906
 40
0.9999999999999999
 40
0.9999999999999999
 40
0.9999999999999999
 40
0.9999999999999999
 10
705.3066854887517
 20
-215.0940353023051
 30
0.0
 10
705.3647299651121
 20
-215.1219211122187
 30
0.0
 10
705.7384466333665
 20
-215.301462605672
 30
0.0
 10
706.2765276818104
 20
-215.8854562580416
 30
0.0
 10
706.8994737322383
 20
-216.8715186872105
 30
0.0
 10
707.3112845236062
 20
-218.1144019525003
 30
0.0
 10
707.4942999895367
 20
-219.2973827393534
 30
0.0
 10
707.5101355060987
 20
-220.0731774853553
 30
0.0
 10
707.5153817761818
 20
-220.3301964939076
 30
0.0
  0
SPLINE
  5
180
330
1F
100
AcDbEntity
  8
0
  6
Continuous
 62
     7
370
    25
100
AcDbSpline
210
0.0
220
0.0
230
1.0
 70
     8
 71
     3
 72
    24
 73
    20
 74
     0
 42
0.00000001
 43
0.00000001
 40
0.0
 40
0.0
 40
0.0
 40
0.0
 40
0.0333596989496879
 40
0.0973590680872733
 40
0.1615522092678944
 40
0.2259120775685241
 40
0.2904056653955215
 40
0.3549742039410224
 40
0.4195505619021565
 40
0.4840436727488079
 40
0.5483812883138566
 40
0.6124982536220763
 40
0.6763519982180644
 40
0.7399675412187853
 40
0.8035081668662007
 40
0.8673286518428056
 40
0.9323398086381097
 40
0.9999214903944764
 40
0.9999999999999999
 40
0.9999999999999999
 40
0.9999999999999999
 40
0.9999999999999999
 10
707.5153817761818
 20
-220.3301964939076
 30
0.0
 10
707.5096731579157
 20
-220.6060884236058
 30
0.0
 10
707.4930127631294
 20
-221.4112689861982
 30
0.0
 10
707.3048203638227
 20
-222.8446928330576
 30
0.0
 10
706.8810388539462
 20
-224.6211015372557
 30
0.0
 10
706.2516423267999
 20
-226.4334977534892
 30
0.0
 10
705.434408785283
 20
-228.2314707843902
 30
0.0
 10
704.4484286571092
 20
-229.9685715060044
 30
0.0
 10
703.3195334038862
 20
-231.5988506778047
 30
0.0
 10
702.0780093339157
 20
-233.0797239293362
 30
0.0
 10
700.7582626724175
 20
-234.3730479329238
 30
0.0
 10
699.397665010487
 20
-235.4467962067456
 30
0.0
 10
698.0357971303229
 20
-236.2760776972029
 30
0.0
 10
696.7122607281293
 20
-236.8459204978173
 30
0.0
 10
695.4669843253943
 20
-237.1480711925219
 30
0.0
 10
694.3251822686634
 20
-237.1984345554503
 30
0.0
 10
693.3235642289648
 20
-236.9676317962601
 30
0.0
 10
692.7030031391215
 20
-236.7343589673267
 30
0.0
 10
692.4520379014881
 20
-236.4951074314372
 30
0.0
 10
692.4517466935946
 20
-236.4948298155552
 30
0.0
  0
SPLINE
  5
181
330
1F
100
AcDbEntity
  8
0
  6
Continuous
 62
     7
370
    25
100
AcDbSpline
210
0.0
220
0.0
230
1.0
 70
     8
 71
     3
 72
    13
 73
     9
 74
     0
 42
0.00000001
 43
0.00000001
 40
0.0
 40
0.0
 40
0.0
 40
0.0
 40
0.0411257184067399
 40
0.2647860300621852
 40
0.4837070278398247
 40
0.693450190671881
 40
0.8984407557908496
 40
1.0
 40
1.0
 40
1.0
 40
1.0
 10
552.6423314305662
 20
-479.5164522597059
 30
0.0
 10
552.7003759069266
 20
-479.5443380696196
 30
0.0
 10
553.0740925751811
 20
-479.723879563073
 30
0.0
 10
553.612173623625
 20
-480.3078732154427
 30
0.0
 10
554.2351196740531
 20
-481.2939356446116
 30
0.0
 10
554.6469304654208
 20
-482.5368189099016
 30
0.0
 10
554.8299459313513
 20
-483.7197996967545
 30
0.0
 10
554.845781447913
 20
-484.4955944427563
 30
0.0
 10
554.8510277179963
 20
-484.7526134513084
 30
0.0
  0
SPLINE
  5
182
330
1F
100
AcDbEntity
  8
0
  6
Continuous
 62
     7
370
    25
100
AcDbSpline
210
0.0
220
0.0
230
1.0
 70
     8
 71
     3
 72
    24
 73
    20
 74
     0
 42
0.00000001
 43
0.00000001
 40
0.0
 40
0.0
 40
0.0
 40
0.0
 40
0.0333596989496878
 40
0.0973590680872689
 40
0.1615522092678908
 40
0.2259120775685205
 40
0.290405665395515
 40
0.3549742039410176
 40
0.4195505619021532
 40
0.4840436727488033
 40
0.5483812883138536
 40
0.6124982536220772
 40
0.6763519982180627
 40
0.7399675412187884
 40
0.8035081668662042
 40
0.8673286518428148
 40
0.9323398086381165
 40
0.9999214903944804
 40
1.0
 40
1.0
 40
1.0
 40
1.0
 10
554.8510277179963
 20
-484.7526134513084
 30
0.0
 10
554.8453190997302
 20
-485.0285053810067
 30
0.0
 10
554.8286587049439
 20
-485.8336859435989
 30
0.0
 10
554.6404663056372
 20
-487.2671097904583
 30
0.0
 10
554.2166847957607
 20
-489.0435184946564
 30
0.0
 10
553.5872882686144
 20
-490.8559147108899
 30
0.0
 10
552.7700547270978
 20
-492.6538877417909
 30
0.0
 10
551.7840745989239
 20
-494.390988463405
 30
0.0
 10
550.6551793457008
 20
-496.0212676352053
 30
0.0
 10
549.4136552757304
 20
-497.5021408867369
 30
0.0
 10
548.0939086142321
 20
-498.7954648903246
 30
0.0
 10
546.7333109523017
 20
-499.8692131641463
 30
0.0
 10
545.3714430721375
 20
-500.6984946546037
 30
0.0
 10
544.0479066699438
 20
-501.268337455218
 30
0.0
 10
542.8026302672089
 20
-501.5704881499227
 30
0.0
 10
541.6608282104776
 20
-501.6208515128519
 30
0.0
 10
540.6592101707807
 20
-501.3900487536579
 30
0.0
 10
540.0386490809327
 20
-501.1567759247345
 30
0.0
 10
539.7876838433027
 20
-500.9175243888381
 30
0.0
 10
539.7873926354091
 20
-500.9172467729561
 30
0.0
  0
SPLINE
  5
183
330
1F
100
AcDbEntity
  8
0
  6
Continuous
 62
     7
370
    25
100
AcDbSpline
210
0.0
220
0.0
230
1.0
 70
     8
 71
     3
 72
    13
 73
     9
 74
     0
 42
0.00000001
 43
0.00000001
 40
0.0
 40
0.0
 40
0.0
 40
0.0
 40
0.0411257184067086
 40
0.2647860300621254
 40
0.4837070278397506
 40
0.6934501906718287
 40
0.8984407557908146
 40
1.0
 40
1.0
 40
1.0
 40
1.0
 10
628.9745084596608
 20
-282.7782002876179
 30
0.0
 10
629.0325529360213
 20
-282.8060860975314
 30
0.0
 10
629.4062696042756
 20
-282.9856275909847
 30
0.0
 10
629.9443506527194
 20
-283.5696212433543
 30
0.0
 10
630.5672967031475
 20
-284.5556836725232
 30
0.0
 10
630.9791074945152
 20
-285.7985669378131
 30
0.0
 10
631.1621229604457
 20
-286.9815477246661
 30
0.0
 10
631.1779584770077
 20
-287.757342470668
 30
0.0
 10
631.1832047470909
 20
-288.0143614792203
 30
0.0
  0
SPLINE
  5
184
330
1F
100
AcDbEntity
  8
0
  6
Continuous
 62
     7
370
    25
100
AcDbSpline
210
0.0
220
0.0
230
1.0
 70
     8
 71
     3
 72
    24
 73
    20
 74
     0
 42
0.00000001
 43
0.00000001
 40
0.0
 40
0.0
 40
0.0
 40
0.0
 40
0.0333596989496882
 40
0.0973590680872799
 40
0.1615522092678981
 40
0.225912077568529
 40
0.2904056653955263
 40
0.3549742039410277
 40
0.4195505619021626
 40
0.4840436727488148
 40
0.5483812883138636
 40
0.612498253622085
 40
0.6763519982180735
 40
0.7399675412187952
 40
0.8035081668662053
 40
0.8673286518428234
 40
0.9323398086381147
 40
0.9999214903944847
 40
0.9999999999999999
 40
0.9999999999999999
 40
0.9999999999999999
 40
0.9999999999999999
 10
631.1832047470909
 20
-288.0143614792203
 30
0.0
 10
631.1774961288248
 20
-288.2902534089185
 30
0.0
 10
631.1608357340385
 20
-289.0954339715108
 30
0.0
 10
630.9726433347317
 20
-290.5288578183703
 30
0.0
 10
630.5488618248552
 20
-292.3052665225685
 30
0.0
 10
629.9194652977089
 20
-294.117662738802
 30
0.0
 10
629.102231756192
 20
-295.915635769703
 30
0.0
 10
628.1162516280182
 20
-297.6527364913171
 30
0.0
 10
626.9873563747952
 20
-299.2830156631175
 30
0.0
 10
625.7458323048247
 20
-300.7638889146489
 30
0.0
 10
624.4260856433265
 20
-302.0572129182366
 30
0.0
 10
623.065487981396
 20
-303.1309611920583
 30
0.0
 10
621.7036201012318
 20
-303.9602426825156
 30
0.0
 10
620.3800836990383
 20
-304.53008548313
 30
0.0
 10
619.1348072963032
 20
-304.8322361778344
 30
0.0
 10
617.9930052395722
 20
-304.8825995407642
 30
0.0
 10
616.9913871998751
 20
-304.6517967815677
 30
0.0
 10
616.3708261100278
 20
-304.4185239526509
 30
0.0
 10
616.1198608723973
 20
-304.17927241675
 30
0.0
 10
616.1195696645037
 20
-304.1789948008679
 30
0.0
  0
SPLINE
  5
185
330
1F
100
AcDbEntity
  8
0
  6
Continuous
 62
     7
370
    25
100
AcDbSpline
210
0.0
220
0.0
230
1.0
 70
     8
 71
     3
 72
    13
 73
     9
 74
     0
 42
0.00000001
 43
0.00000001
 40
0.0
 40
0.0
 40
0.0
 40
0.0
 40
0.0411257184066781
 40
0.2647860300620836
 40
0.4837070278397
 40
0.6934501906717667
 40
0.8984407557907245
 40
1.0
 40
1.0
 40
1.0
 40
1.0
 10
573.0954766220227
 20
-379.5635222241077
 30
0.0
 10
573.1535210983832
 20
-379.5914080340212
 30
0.0
 10
573.5272377666375
 20
-379.7709495274745
 30
0.0
 10
574.0653188150814
 20
-380.3549431798439
 30
0.0
 10
574.6882648655094
 20
-381.3410056090128
 30
0.0
 10
575.1000756568774
 20
-382.5838888743025
 30
0.0
 10
575.2830911228078
 20
-383.7668696611556
 30
0.0
 10
575.2989266393697
 20
-384.5426644071578
 30
0.0
 10
575.304172909453
 20
-384.7996834157102
 30
0.0
  0
SPLINE
  5
186
330
1F
100
AcDbEntity
  8
0
  6
Continuous
 62
     7
370
    25
100
AcDbSpline
210
0.0
220
0.0
230
1.0
 70
     8
 71
     3
 72
    24
 73
    20
 74
     0
 42
0.00000001
 43
0.00000001
 40
0.0
 40
0.0
 40
0.0
 40
0.0
 40
0.0333596989496882
 40
0.0973590680872703
 40
0.1615522092678932
 40
0.2259120775685241
 40
0.2904056653955249
 40
0.3549742039410229
 40
0.4195505619021595
 40
0.4840436727488096
 40
0.5483812883138602
 40
0.612498253622082
 40
0.676351998218072
 40
0.7399675412187952
 40
0.8035081668662098
 40
0.8673286518428229
 40
0.9323398086381276
 40
0.9999214903944897
 40
1.0
 40
1.0
 40
1.0
 40
1.0
 10
575.304172909453
 20
-384.7996834157102
 30
0.0
 10
575.298464291187
 20
-385.0755753454084
 30
0.0
 10
575.2818038964006
 20
-385.8807559080008
 30
0.0
 10
575.0936114970939
 20
-387.31417975486
 30
0.0
 10
574.6698299872174
 20
-389.0905884590582
 30
0.0
 10
574.0404334600712
 20
-390.9029846752917
 30
0.0
 10
573.2231999185543
 20
-392.7009577061928
 30
0.0
 10
572.2372197903804
 20
-394.4380584278068
 30
0.0
 10
571.1083245371575
 20
-396.0683375996071
 30
0.0
 10
569.8668004671871
 20
-397.5492108511386
 30
0.0
 10
568.5470538056888
 20
-398.8425348547263
 30
0.0
 10
567.1864561437584
 20
-399.9162831285481
 30
0.0
 10
565.8245882635941
 20
-400.7455646190054
 30
0.0
 10
564.5010518614007
 20
-401.3154074196198
 30
0.0
 10
563.2557754586655
 20
-401.6175581143244
 30
0.0
 10
562.1139734019345
 20
-401.6679214772535
 30
0.0
 10
561.1123553622374
 20
-401.43711871806
 30
0.0
 10
560.4917942723897
 20
-401.2038458891354
 30
0.0
 10
560.2408290347596
 20
-400.96459435324
 30
0.0
 10
560.240537826866
 20
-400.964316737358
 30
0.0
  0
LWPOLYLINE
  5
187
330
1F
100
AcDbEntity
  8
0
  6
Continuous
 62
     7
370
    25
100
AcDbPolyline
 90
      166
 70
   128
 43
0.0
 10
869.7357278867
 20
-302.7344249204
 10
869.6114178723
 20
-295.2677629176
 10
869.2386680665
 20
-287.9554521486
 10
868.6180189211
 20
-280.8080947648
 10
867.7503703179
 20
-273.8360537513
 10
866.6369802644
 20
-267.0494379009
 10
865.2794630699
 20
-260.4580871579
 10
863.6797870044
 20
-254.0715583506
 10
861.8402714453
 20
-247.8991113353
 10
859.7635835143
 20
-241.9496955701
 10
857.4527342104
 20
-236.231937139
 10
854.9110740441
 20
-230.7541262452
 10
852.1422881798
 20
-225.5242051907
 10
849.1503910921
 20
-220.5497568612
 10
845.9397207459
 20
-215.8379937311
 10
842.5149323063
 20
-211.3957474064
 10
838.880991389
 20
-207.2294587198
 10
835.0431668609
 20
-203.3451683915
 10
831.0070232008
 20
-199.7485082712
 10
826.778412431
 20
-196.444693172
 10
822.363465633
 20
-193.4385133102
 10
817.7685840575
 20
-190.7343273591
 10
813.0004298435
 20
-188.3360561299
 10
808.0659163588
 20
-186.2471768864
 10
802.9721981763
 20
-184.470718304
 10
797.7266607002
 20
-183.0092560777
 10
792.3369094585
 20
-181.8649091881
 10
786.8107590752
 20
-181.0393368287
 10
781.1562219401
 20
-180.5337360006
 10
775.3814965914
 20
-180.3488397765
 10
769.4949558288
 20
-180.4849162384
 10
763.5051345737
 20
-180.9417680885
 10
757.4207174942
 20
-181.718732935
 10
751.2505264134
 20
-182.8146842535
 10
745.0035075186
 20
-184.2280330191
 10
738.6887183898
 20
-185.9567300113
 10
732.3153148677
 20
-187.9982687848
 10
725.892537778
 20
-190.3496893034
 10
719.4296995336
 20
-193.0075822323
 10
712.9361706319
 20
-195.9680938808
 10
706.4213660691
 20
-199.2269317899
 10
699.8947316891
 20
-202.7793709564
 10
693.3657304876
 20
-206.620260683
 10
686.8438288924
 20
-210.7440320468
 10
680.3384830371
 20
-215.1447059735
 10
673.8591250514
 20
-219.8159019068
 10
667.4151493849
 20
-224.750847059
 10
661.0158991863
 20
-229.9423862315
 10
654.6706527565
 20
-235.3829921887
 10
648.3886100964
 20
-241.0647765722
 10
642.1788795671
 20
-246.9795013379
 10
636.0504646843
 20
-253.1185907001
 10
630.0122510638
 20
-259.4731435664
 10
624.0729935379
 20
-266.0339464424
 10
618.2413034623
 20
-272.7914867913
 10
612.5256362301
 20
-279.7359668256
 10
606.9342790124
 20
-286.8573177132
 10
601.4753387425
 20
-294.145214176
 10
596.1567303621
 20
-301.5890894609
 10
590.9861653447
 20
-309.1781506604
 10
585.9711405154
 20
-316.9013943612
 10
581.1189271807
 20
-324.7476225985
 10
576.436560586
 20
-332.7054590912
 10
571.9308297154
 20
-340.7633657373
 10
567.6082674477
 20
-348.9096593426
 10
563.4751410851
 20
-357.1325285599
 10
559.5374432657
 20
-365.4200510152
 10
555.8008832748
 20
-373.7602105932
 10
552.2708787672
 20
-382.1409148597
 10
548.9525479119
 20
-390.5500125948
 10
545.8507019715
 20
-398.9753114106
 10
542.9698383261
 20
-407.4045954295
 10
540.3141339525
 20
-415.8256429954
 10
537.8874393681
 20
-424.2262443944
 10
535.6932730482
 20
-432.5942195575
 10
533.7348163241
 20
-440.9174357208
 10
532.0149087709
 20
-449.1838250165
 10
530.53604409
 20
-457.3814019705
 10
529.3003664939
 20
-465.4982808798
 10
528.309667597
 20
-473.522693046
 10
527.5653838179
 20
-481.4430038387
 10
527.068594297
 20
-489.2477295643
 10
526.8200193316
 20
-496.9255541166
 10
526.8200193316
 20
-504.4653453842
 10
527.068594297
 20
-511.8561713904
 10
527.5653838179
 20
-519.0873161442
 10
528.309667597
 20
-526.1482951769
 10
529.3003664939
 20
-533.028870744
 10
530.53604409
 20
-539.7190666686
 10
532.0149087709
 20
-546.2091828064
 10
533.7348163241
 20
-552.4898091093
 10
535.6932730482
 20
-558.5518392697
 10
537.8874393681
 20
-564.3864839233
 10
540.3141339525
 20
-569.9852833932
 10
542.9698383261
 20
-575.3401199554
 10
545.8507019715
 20
-580.4432296089
 10
548.9525479119
 20
-585.2872133325
 10
552.2708787672
 20
-589.8650478128
 10
555.8008832748
 20
-594.1700956276
 10
559.5374432657
 20
-598.1961148691
 10
563.4751410851
 20
-601.9372681942
 10
567.6082674477
 20
-605.3881312884
 10
571.9308297154
 20
-608.5437007299
 10
576.436560586
 20
-611.3994012449
 10
581.1189271807
 20
-613.9510923405
 10
585.9711405154
 20
-616.1950743086
 10
590.9861653447
 20
-618.1280935899
 10
596.1567303621
 20
-619.7473474913
 10
601.4753387425
 20
-621.0504882494
 10
606.9342790124
 20
-622.0356264346
 10
612.5256362301
 20
-622.7013336907
 10
618.2413034623
 20
-623.046644806
 10
624.0729935379
 20
-623.0710591123
 10
630.0122510638
 20
-622.7745412111
 10
636.0504646843
 20
-622.1575210252
 10
642.1788795671
 20
-621.2208931747
 10
648.3886100964
 20
-619.9660156805
 10
654.6706527565
 20
-618.394707995
 10
661.0158991863
 20
-616.5092483641
 10
667.4151493849
 20
-614.3123705241
 10
673.8591250514
 20
-611.8072597378
 10
680.3384830371
 20
-608.9975481764
 10
686.8438288924
 20
-605.8873096529
 10
693.3657304876
 20
-602.481053716
 10
699.8947316891
 20
-598.783719111
 10
706.4213660691
 20
-594.8006666197
 10
712.9361706319
 20
-590.5376712874
 10
719.4296995336
 20
-586.0009140499
 10
725.892537778
 20
-581.1969727713
 10
732.3153148677
 20
-576.1328127073
 10
738.6887183898
 20
-570.8157764058
 10
745.0035075186
 20
-565.2535730611
 10
751.2505264134
 20
-559.4542673364
 10
757.4207174942
 20
-553.4262676706
 10
763.5051345737
 20
-547.1783140868
 10
769.4949558288
 20
-540.7194655204
 10
775.3814965914
 20
-534.0590866844
 10
781.1562219401
 20
-527.2068344914
 10
786.8107590752
 20
-520.172644052
 10
792.3369094585
 20
-512.9667142698
 10
797.7266607002
 20
-505.5994930542
 10
802.9721981763
 20
-498.0816621715
 10
808.0659163588
 20
-490.4241217578
 10
813.0004298435
 20
-482.6379745147
 10
817.7685840575
 20
-474.7345096113
 10
822.363465633
 20
-466.7251863162
 10
826.778412431
 20
-458.6216173823
 10
831.0070232008
 20
-450.4355522101
 10
835.0431668609
 20
-442.1788598113
 10
838.880991389
 20
-433.8635116006
 10
842.5149323063
 20
-425.501564038
 10
845.9397207459
 20
-417.1051411479
 10
849.1503910921
 20
-408.686416941
 10
852.1422881798
 20
-400.2575977624
 10
854.9110740441
 20
-391.8309045942
 10
857.4527342104
 20
-383.4185553358
 10
859.7635835143
 20
-375.0327470895
 10
861.8402714453
 20
-366.6856384754
 10
863.6797870044
 20
-358.3893320032
 10
865.2794630699
 20
-350.1558565241
 10
866.6369802644
 20
-341.9971497903
 10
867.7503703179
 20
-333.9250411467
 10
868.6180189211
 20
-325.9512343791
 10
869.2386680665
 20
-318.087290745
 10
869.6114178723
 20
-310.3446122109
 10
869.7357278867
 20
-302.7344249204
  0
ARC
  5
188
330
1F
100
AcDbEntity
  8
0
  6
Continuous
 62
     7
370
    25
100
AcDbCircle
 10
619.4921560085
 20
-539.8144799682
 30
0.0
 40
84.4643284581459
100
AcDbArc
 50
214.8140172709
 51
265.4307645632
  0
ARC
  5
189
330
1F
100
AcDbEntity
  8
0
  6
Continuous
 62
     7
370
    25
100
AcDbCircle
 10
778.4097899097
 20
-264.5293689716
 30
0.0
 40
84.54800810253795
100
AcDbArc
 50
34.3213478702
 51
85.4991182576
  0
ARC
  5
18A
330
1F
100
AcDbEntity
  8
0
  6
Continuous
 62
     7
370
    25
100
AcDbCircle
 10
798.2239913064
 20
-278.0812358881
 30
0.0
 40
86.44442078424352
100
AcDbArc
 50
34.1530995003
 51
59.6346033228
  0
ARC
  5
18B
330
1F
100
AcDbEntity
  8
0
  6
Continuous
 62
     7
370
    25
100
AcDbCircle
 10
641.2061559649
 20
-550.0017847757
 30
0.0
 40
86.56036274908479
100
AcDbArc
 50
240.3940384636
 51
265.5107747605
  0
LWPOLYLINE
  5
18C
330
1F
100
AcDbEntity
  8
0
  6
Continuous
 62
     7
370
    25
100
AcDbPolyline
 90
       39
 70
   128
 43
0.0
 10
575.5970661283
 20
-384.3914793598
 10
575.4668719278
 20
-386.281014577
 10
575.0798406847
 20
-388.2693272235
 10
574.4465296025
 20
-390.3021813132
 10
573.5842137565
 20
-392.324125886
 10
572.5164148752
 20
-394.2800075646
 10
571.2722597284
 20
-396.1164749955
 10
569.8856856253
 20
-397.7834341345
 10
568.3945146929
 20
-399.2354146817
 10
566.839422187
 20
-400.4328103928
 10
565.2628269775
 20
-401.3429594342
 10
563.7077344716
 20
-401.9410353127
 10
562.2165635392
 20
-402.2107240773
 10
560.8299894361
 20
-402.1446693215
 10
559.5858342893
 20
-401.7446728469
 10
558.518035408
 20
-401.0216455147
 10
557.655719562
 20
-399.9953096256
 10
557.0224084798
 20
-398.6936609472
 10
556.6353772367
 20
-397.1522050624
 10
556.5051830362
 20
-395.4129888694
 10
556.6353772367
 20
-393.5234536522
 10
557.0224084798
 20
-391.5351410057
 10
557.655719562
 20
-389.502286916
 10
558.518035408
 20
-387.4803423432
 10
559.5858342893
 20
-385.5244606646
 10
560.8299894361
 20
-383.6879932337
 10
562.2165635392
 20
-382.0210340947
 10
563.7077344716
 20
-380.5690535475
 10
565.2628269775
 20
-379.3716578364
 10
566.839422187
 20
-378.461508795
 10
568.3945146929
 20
-377.8634329165
 10
569.8856856253
 20
-377.5937441519
 10
571.2722597284
 20
-377.6597989077
 10
572.5164148752
 20
-378.0597953823
 10
573.5842137565
 20
-378.7828227145
 10
574.4465296025
 20
-379.8091586036
 10
575.0798406847
 20
-381.110807282
 10
575.4668719278
 20
-382.6522631668
 10
575.5970661283
 20
-384.3914793598
  0
LWPOLYLINE
  5
18D
330
1F
100
AcDbEntity
  8
0
  6
Continuous
 62
     7
370
    25
100
AcDbPolyline
 90
       39
 70
   128
 43
0.0
 10
575.5970661283
 20
-560.6826406459
 10
575.4668719278
 20
-562.5721758632
 10
575.0798406847
 20
-564.5604885096
 10
574.4465296025
 20
-566.5933425994
 10
573.5842137565
 20
-568.6152871721
 10
572.5164148752
 20
-570.5711688507
 10
571.2722597284
 20
-572.4076362816
 10
569.8856856253
 20
-574.0745954206
 10
568.3945146929
 20
-575.5265759678
 10
566.839422187
 20
-576.723971679
 10
565.2628269775
 20
-577.6341207204
 10
563.7077344716
 20
-578.2321965988
 10
562.2165635392
 20
-578.5018853634
 10
560.8299894361
 20
-578.4358306076
 10
559.5858342893
 20
-578.0358341331
 10
558.5180354079
 20
-577.3128068008
 10
557.655719562
 20
-576.2864709117
 10
557.0224084798
 20
-574.9848222334
 10
556.6353772367
 20
-573.4433663486
 10
556.5051830362
 20
-571.7041501555
 10
556.6353772367
 20
-569.8146149383
 10
557.0224084798
 20
-567.8263022919
 10
557.655719562
 20
-565.7934482021
 10
558.5180354079
 20
-563.7715036294
 10
559.5858342893
 20
-561.8156219508
 10
560.8299894361
 20
-559.9791545199
 10
562.2165635392
 20
-558.3121953809
 10
563.7077344716
 20
-556.8602148336
 10
565.2628269775
 20
-555.6628191225
 10
566.839422187
 20
-554.7526700811
 10
568.3945146929
 20
-554.1545942027
 10
569.8856856253
 20
-553.8849054381
 10
571.2722597284
 20
-553.9509601938
 10
572.5164148752
 20
-554.3509566684
 10
573.5842137565
 20
-555.0739840007
 10
574.4465296025
 20
-556.1003198898
 10
575.0798406847
 20
-557.4019685681
 10
575.4668719278
 20
-558.9434244529
 10
575.5970661283
 20
-560.6826406459
  0
LWPOLYLINE
  5
18E
330
1F
100
AcDbEntity
  8
0
  6
Continuous
 62
     7
370
    25
100
AcDbPolyline
 90
       39
 70
   128
 43
0.0
 10
707.808274995
 20
-572.5043150103
 10
707.6780807945
 20
-574.3938502275
 10
707.2910495515
 20
-576.382162874
 10
706.6577384692
 20
-578.4150169637
 10
705.7954226233
 20
-580.4369615364
 10
704.7276237419
 20
-582.3928432151
 10
703.4834685951
 20
-584.229310646
 10
702.096894492
 20
-585.896269785
 10
700.6057235596
 20
-587.3482503322
 10
699.0506310538
 20
-588.5456460433
 10
697.4740358442
 20
-589.4557950847
 10
695.9189433383
 20
-590.0538709632
 10
694.4277724059
 20
-590.3235597278
 10
693.0411983028
 20
-590.257504972
 10
691.797043156
 20
-589.8575084974
 10
690.7292442747
 20
-589.1344811652
 10
689.8669284287
 20
-588.1081452761
 10
689.2336173465
 20
-586.8064965977
 10
688.8465861034
 20
-585.2650407129
 10
688.7163919029
 20
-583.5258245199
 10
688.8465861034
 20
-581.6362893026
 10
689.2336173465
 20
-579.6479766562
 10
689.8669284287
 20
-577.6151225665
 10
690.7292442747
 20
-575.5931779937
 10
691.797043156
 20
-573.6372963151
 10
693.0411983028
 20
-571.8008288842
 10
694.4277724059
 20
-570.1338697452
 10
695.9189433383
 20
-568.681889198
 10
697.4740358442
 20
-567.4844934869
 10
699.0506310538
 20
-566.5743444454
 10
700.6057235596
 20
-565.976268567
 10
702.096894492
 20
-565.7065798024
 10
703.4834685951
 20
-565.7726345582
 10
704.7276237419
 20
-566.1726310328
 10
705.7954226233
 20
-566.895658365
 10
706.6577384692
 20
-567.9219942541
 10
707.2910495515
 20
-569.2236429325
 10
707.6780807945
 20
-570.7650988173
 10
707.808274995
 20
-572.5043150103
  0
LWPOLYLINE
  5
18F
330
1F
100
AcDbEntity
  8
0
  6
Continuous
 62
     7
370
    25
100
AcDbPolyline
 90
       39
 70
   128
 43
0.0
 10
860.4726290532
 20
-308.0818980529
 10
860.3424348527
 20
-309.9714332701
 10
859.9554036096
 20
-311.9597459166
 10
859.3220925274
 20
-313.9926000063
 10
858.4597766814
 20
-316.014544579
 10
857.3919778001
 20
-317.9704262577
 10
856.1478226533
 20
-319.8068936886
 10
854.7612485502
 20
-321.4738528276
 10
853.2700776178
 20
-322.9258333748
 10
851.7149851119
 20
-324.1232290859
 10
850.1383899024
 20
-325.0333781273
 10
848.5832973965
 20
-325.6314540058
 10
847.0921264641
 20
-325.9011427704
 10
845.705552361
 20
-325.8350880146
 10
844.4613972142
 20
-325.43509154
 10
843.3935983329
 20
-324.7120642078
 10
842.5312824869
 20
-323.6857283187
 10
841.8979714047
 20
-322.3840796403
 10
841.5109401616
 20
-320.8426237555
 10
841.3807459611
 20
-319.1034075625
 10
841.5109401616
 20
-317.2138723452
 10
841.8979714047
 20
-315.2255596988
 10
842.5312824869
 20
-313.1927056091
 10
843.3935983329
 20
-311.1707610363
 10
844.4613972142
 20
-309.2148793577
 10
845.705552361
 20
-307.3784119268
 10
847.0921264641
 20
-305.7114527878
 10
848.5832973965
 20
-304.2594722406
 10
850.1383899024
 20
-303.0620765295
 10
851.7149851119
 20
-302.151927488
 10
853.2700776178
 20
-301.5538516096
 10
854.7612485502
 20
-301.284162845
 10
856.1478226533
 20
-301.3502176008
 10
857.3919778001
 20
-301.7502140754
 10
858.4597766814
 20
-302.4732414076
 10
859.3220925274
 20
-303.4995772967
 10
859.9554036096
 20
-304.8012259751
 10
860.3424348527
 20
-306.3426818599
 10
860.4726290532
 20
-308.0818980529
  0
LWPOLYLINE
  5
190
330
1F
100
AcDbEntity
  8
0
  6
Continuous
 62
     7
370
    25
100
AcDbPolyline
 90
       39
 70
   128
 43
0.0
 10
784.1404520241
 20
-199.4749017521
 10
784.0102578236
 20
-201.3644369693
 10
783.6232265806
 20
-203.3527496157
 10
782.9899154983
 20
-205.3856037055
 10
782.1275996524
 20
-207.4075482782
 10
781.059800771
 20
-209.3634299568
 10
779.8156456242
 20
-211.1998973877
 10
778.4290715211
 20
-212.8668565267
 10
776.9379005887
 20
-214.318837074
 10
775.3828080829
 20
-215.5162327851
 10
773.8062128733
 20
-216.4263818265
 10
772.2511203674
 20
-217.0244577049
 10
770.759949435
 20
-217.2941464695
 10
769.3733753319
 20
-217.2280917138
 10
768.1292201851
 20
-216.8280952392
 10
767.0614213038
 20
-216.1050679069
 10
766.1991054578
 20
-215.0787320178
 10
765.5657943756
 20
-213.7770833395
 10
765.1787631325
 20
-212.2356274547
 10
765.048568932
 20
-210.4964112617
 10
765.1787631325
 20
-208.6068760444
 10
765.5657943756
 20
-206.618563398
 10
766.1991054578
 20
-204.5857093082
 10
767.0614213038
 20
-202.5637647355
 10
768.1292201851
 20
-200.6078830569
 10
769.3733753319
 20
-198.771415626
 10
770.759949435
 20
-197.104456487
 10
772.2511203674
 20
-195.6524759398
 10
773.8062128733
 20
-194.4550802286
 10
775.3828080829
 20
-193.5449311872
 10
776.9379005887
 20
-192.9468553088
 10
778.4290715211
 20
-192.6771665442
 10
779.8156456242
 20
-192.7432213
 10
781.059800771
 20
-193.1432177745
 10
782.1275996524
 20
-193.8662451068
 10
782.9899154983
 20
-194.8925809959
 10
783.6232265806
 20
-196.1942296742
 10
784.0102578236
 20
-197.735685559
 10
784.1404520241
 20
-199.4749017521
  0
LWPOLYLINE
  5
191
330
1F
100
AcDbEntity
  8
0
  6
Continuous
 62
     7
370
    25
100
AcDbPolyline
 90
       39
 70
   128
 43
0.0
 10
707.808274995
 20
-219.921992438
 10
707.6780807945
 20
-221.8115276552
 10
707.2910495515
 20
-223.7998403017
 10
706.6577384693
 20
-225.8326943914
 10
705.7954226233
 20
-227.8546389642
 10
704.7276237419
 20
-229.8105206428
 10
703.4834685951
 20
-231.6469880737
 10
702.096894492
 20
-233.3139472127
 10
700.6057235596
 20
-234.7659277599
 10
699.0506310538
 20
-235.963323471
 10
697.4740358442
 20
-236.8734725124
 10
695.9189433383
 20
-237.4715483909
 10
694.4277724059
 20
-237.7412371555
 10
693.0411983028
 20
-237.6751823997
 10
691.797043156
 20
-237.2751859251
 10
690.7292442747
 20
-236.5521585929
 10
689.8669284287
 20
-235.5258227038
 10
689.2336173465
 20
-234.2241740254
 10
688.8465861034
 20
-232.6827181406
 10
688.716391903
 20
-230.9435019476
 10
688.8465861034
 20
-229.0539667304
 10
689.2336173465
 20
-227.0656540839
 10
689.8669284287
 20
-225.0327999942
 10
690.7292442747
 20
-223.0108554214
 10
691.797043156
 20
-221.0549737428
 10
693.0411983028
 20
-219.2185063119
 10
694.4277724059
 20
-217.5515471729
 10
695.9189433383
 20
-216.0995666257
 10
697.4740358442
 20
-214.9021709146
 10
699.0506310538
 20
-213.9920218732
 10
700.6057235596
 20
-213.3939459947
 10
702.096894492
 20
-213.1242572301
 10
703.4834685951
 20
-213.1903119859
 10
704.7276237419
 20
-213.5903084605
 10
705.7954226233
 20
-214.3133357927
 10
706.6577384693
 20
-215.3396716818
 10
707.2910495515
 20
-216.6413203602
 10
707.6780807945
 20
-218.182776245
 10
707.808274995
 20
-219.921992438
  0
LWPOLYLINE
  5
192
330
1F
100
AcDbEntity
  8
0
  6
Continuous
 62
     7
370
    25
100
AcDbPolyline
 90
      139
 70
   128
 43
0.0
 10
818.4704862507
 20
-332.329218974
 10
818.3459113741
 20
-338.7191042334
 10
817.9724449446
 20
-345.2395765708
 10
817.3508610286
 20
-351.8771213117
 10
816.4824479536
 20
-358.6179811308
 10
815.3690056383
 20
-365.448184567
 10
814.0128418619
 20
-372.3535749805
 10
812.416767481
 20
-379.3198398952
 10
810.5840906034
 20
-386.3325406633
 10
808.5186097318
 20
-393.3771423916
 10
806.2246058908
 20
-400.4390440672
 10
803.7068337536
 20
-407.5036088205
 10
800.9705117874
 20
-414.5561942622
 10
798.0213114375
 20
-421.5821828321
 10
794.8653453718
 20
-428.5670120959
 10
791.509154812
 20
-435.4962049284
 10
787.9596959755
 20
-442.3553995191
 10
784.2243256578
 20
-449.1303791401
 10
780.3107859843
 20
-455.8071016112
 10
776.2271883636
 20
-462.3717284058
 10
771.9819966753
 20
-468.8106533323
 10
767.5840097275
 20
-475.1105307354
 10
763.0423430198
 20
-481.2583031573
 10
758.3664098498
 20
-487.2412284008
 10
753.5659018033
 20
-493.0469059398
 10
748.6507686661
 20
-498.6633026208
 10
743.6311978023
 20
-504.0787776043
 10
738.517593039
 20
-509.2821064912
 10
733.320553103
 20
-514.2625045879
 10
728.0508496531
 20
-519.0096492587
 10
722.7194049544
 20
-523.5137013215
 10
717.3372692404
 20
-527.7653254406
 10
711.915597809
 20
-531.7557094756
 10
706.4656279023
 20
-535.4765827464
 10
700.9986554151
 20
-538.9202331748
 10
695.5260114828
 20
-542.0795232695
 10
690.0590389957
 20
-544.9479049194
 10
684.609069089
 20
-547.5194329654
 10
679.1873976576
 20
-549.7887775229
 10
673.8052619435
 20
-551.7512350289
 10
668.4738172449
 20
-553.4027379905
 10
663.204113795
 20
-554.7398634155
 10
658.0070738589
 20
-555.7598399074
 10
652.8934690956
 20
-556.4605534092
 10
647.8738982318
 20
-556.840551585
 10
642.9587650947
 20
-556.8990468306
 10
638.1582570481
 20
-556.6359179058
 10
633.4823238782
 20
-556.0517101853
 10
628.9406571705
 20
-555.1476345289
 10
624.5426702227
 20
-553.9255647715
 10
620.2974785344
 20
-552.3880338393
 10
616.2138809137
 20
-550.5382284998
 10
612.3003412402
 20
-548.3799827572
 10
608.5649709225
 20
-545.9177699052
 10
605.015512086
 20
-543.1566932562
 10
601.6593215262
 20
-540.1024755629
 10
598.5033554605
 20
-536.7614471581
 10
595.5541551105
 20
-533.1405328332
 10
592.8178331444
 20
-529.2472374862
 10
590.3000610072
 20
-525.0896305662
 10
588.0060571662
 20
-520.6763293484
 10
585.9405762946
 20
-516.0164810735
 10
584.107899417
 20
-511.1197439887
 10
582.5118250361
 20
-505.9962673294
 10
581.1556612597
 20
-500.6566702832
 10
580.0422189444
 20
-495.1120199806
 10
579.1738058693
 20
-489.3738085558
 10
578.5522219533
 20
-483.4539293285
 10
578.1787555239
 20
-477.3646521522
 10
578.0541806473
 20
-471.1185979839
 10
578.1787555239
 20
-464.7287127245
 10
578.5522219533
 20
-458.208240387
 10
579.1738058693
 20
-451.5706956462
 10
580.0422189444
 20
-444.829835827
 10
581.1556612597
 20
-437.9996323909
 10
582.5118250361
 20
-431.0942419774
 10
584.107899417
 20
-424.1279770626
 10
585.9405762946
 20
-417.1152762945
 10
588.0060571662
 20
-410.0706745662
 10
590.3000610072
 20
-403.0087728907
 10
592.8178331444
 20
-395.9442081374
 10
595.5541551105
 20
-388.8916226956
 10
598.5033554605
 20
-381.8656341257
 10
601.6593215262
 20
-374.8808048619
 10
605.015512086
 20
-367.9516120295
 10
608.5649709225
 20
-361.0924174387
 10
612.3003412402
 20
-354.3174378178
 10
616.2138809137
 20
-347.6407153466
 10
620.2974785344
 20
-341.0760885521
 10
624.5426702227
 20
-334.6371636256
 10
628.9406571705
 20
-328.3372862225
 10
633.4823238782
 20
-322.1895138005
 10
638.1582570481
 20
-316.206588557
 10
642.9587650947
 20
-310.4009110181
 10
647.8738982318
 20
-304.784514337
 10
652.8934690956
 20
-299.3690393536
 10
658.0070738589
 20
-294.1657104667
 10
663.204113795
 20
-289.18531237
 10
668.4738172449
 20
-284.4381676991
 10
673.8052619435
 20
-279.9341156363
 10
679.1873976576
 20
-275.6824915173
 10
684.609069089
 20
-271.6921074823
 10
690.0590389957
 20
-267.9712342115
 10
695.5260114828
 20
-264.5275837831
 10
700.9986554151
 20
-261.3682936883
 10
706.4656279023
 20
-258.4999120385
 10
711.915597809
 20
-255.9283839925
 10
717.3372692404
 20
-253.6590394349
 10
722.7194049544
 20
-251.6965819289
 10
728.0508496531
 20
-250.0450789674
 10
733.320553103
 20
-248.7079535423
 10
738.517593039
 20
-247.6879770504
 10
743.6311978023
 20
-246.9872635487
 10
748.6507686661
 20
-246.6072653729
 10
753.5659018033
 20
-246.5487701272
 10
758.3664098498
 20
-246.8118990521
 10
763.0423430198
 20
-247.3961067726
 10
767.5840097275
 20
-248.3001824289
 10
771.9819966753
 20
-249.5222521863
 10
776.2271883636
 20
-251.0597831186
 10
780.3107859843
 20
-252.9095884581
 10
784.2243256578
 20
-255.0678342007
 10
787.9596959755
 20
-257.5300470526
 10
791.509154812
 20
-260.2911237017
 10
794.8653453718
 20
-263.3453413949
 10
798.0213114375
 20
-266.6863697998
 10
800.9705117875
 20
-270.3072841246
 10
803.7068337536
 20
-274.2005794717
 10
806.2246058908
 20
-278.3581863917
 10
808.5186097318
 20
-282.7714876095
 10
810.5840906034
 20
-287.4313358844
 10
812.416767481
 20
-292.3280729692
 10
814.0128418619
 20
-297.4515496285
 10
815.3690056383
 20
-302.7911466746
 10
816.4824479536
 20
-308.3357969773
 10
817.3508610286
 20
-314.074008402
 10
817.9724449446
 20
-319.9938876294
 10
818.3459113741
 20
-326.0831648056
 10
818.4704862507
 20
-332.329218974
  0
LWPOLYLINE
  5
193
330
1F
100
AcDbEntity
  8
0
  6
Continuous
 62
     7
370
    25
100
AcDbPolyline
 90
       39
 70
   128
 43
0.0
 10
840.0194838617
 20
-408.0348280885
 10
839.8892896612
 20
-409.9243633057
 10
839.5022584182
 20
-411.9126759521
 10
838.868947336
 20
-413.9455300419
 10
838.00663149
 20
-415.9674746146
 10
836.9388326086
 20
-417.9233562933
 10
835.6946774618
 20
-419.7598237242
 10
834.3081033587
 20
-421.4267828632
 10
832.8169324263
 20
-422.8787634104
 10
831.2618399205
 20
-424.0761591215
 10
829.6852447109
 20
-424.9863081629
 10
828.1301522051
 20
-425.5843840414
 10
826.6389812727
 20
-425.8540728059
 10
825.2524071696
 20
-425.7880180502
 10
824.0082520228
 20
-425.3880215756
 10
822.9404531414
 20
-424.6649942434
 10
822.0781372954
 20
-423.6386583543
 10
821.4448262132
 20
-422.3370096759
 10
821.0577949702
 20
-420.7955537911
 10
820.9276007697
 20
-419.0563375981
 10
821.0577949702
 20
-417.1668023808
 10
821.4448262132
 20
-415.1784897344
 10
822.0781372954
 20
-413.1456356447
 10
822.9404531414
 20
-411.1236910719
 10
824.0082520228
 20
-409.1678093933
 10
825.2524071696
 20
-407.3313419624
 10
826.6389812727
 20
-405.6643828234
 10
828.1301522051
 20
-404.2124022762
 10
829.6852447109
 20
-403.0150065651
 10
831.2618399205
 20
-402.1048575236
 10
832.8169324263
 20
-401.5067816452
 10
834.3081033587
 20
-401.2370928806
 10
835.6946774618
 20
-401.3031476364
 10
836.9388326086
 20
-401.7031441109
 10
838.00663149
 20
-402.4261714432
 10
838.868947336
 20
-403.4525073323
 10
839.5022584182
 20
-404.7541560107
 10
839.8892896612
 20
-406.2956118955
 10
840.0194838617
 20
-408.0348280885
  0
LWPOLYLINE
  5
194
330
1F
100
AcDbEntity
  8
0
  6
Continuous
 62
     7
370
    25
100
AcDbPolyline
 90
       39
 70
   128
 43
0.0
 10
840.0194838617
 20
-231.7436668023
 10
839.8892896612
 20
-233.6332020196
 10
839.5022584182
 20
-235.621514666
 10
838.868947336
 20
-237.6543687557
 10
838.00663149
 20
-239.6763133285
 10
836.9388326086
 20
-241.6321950071
 10
835.6946774618
 20
-243.468662438
 10
834.3081033587
 20
-245.135621577
 10
832.8169324263
 20
-246.5876021242
 10
831.2618399205
 20
-247.7849978354
 10
829.6852447109
 20
-248.6951468768
 10
828.1301522051
 20
-249.2932227552
 10
826.6389812727
 20
-249.5629115198
 10
825.2524071696
 20
-249.496856764
 10
824.0082520228
 20
-249.0968602895
 10
822.9404531414
 20
-248.3738329572
 10
822.0781372954
 20
-247.3474970681
 10
821.4448262132
 20
-246.0458483898
 10
821.0577949702
 20
-244.5043925049
 10
820.9276007697
 20
-242.7651763119
 10
821.0577949702
 20
-240.8756410947
 10
821.4448262132
 20
-238.8873284483
 10
822.0781372954
 20
-236.8544743585
 10
822.9404531414
 20
-234.8325297858
 10
824.0082520228
 20
-232.8766481072
 10
825.2524071696
 20
-231.0401806762
 10
826.6389812727
 20
-229.3732215373
 10
828.1301522051
 20
-227.92124099
 10
829.6852447109
 20
-226.7238452789
 10
831.2618399205
 20
-225.8136962375
 10
832.8169324263
 20
-225.215620359
 10
834.3081033587
 20
-224.9459315945
 10
835.6946774618
 20
-225.0119863502
 10
836.9388326086
 20
-225.4119828248
 10
838.00663149
 20
-226.1350101571
 10
838.868947336
 20
-227.1613460462
 10
839.5022584182
 20
-228.4629947245
 10
839.8892896612
 20
-230.0044506093
 10
840.0194838617
 20
-231.7436668023
  0
LWPOLYLINE
  5
195
330
1F
100
AcDbEntity
  8
0
  6
Continuous
 62
     7
370
    25
100
AcDbPolyline
 90
       39
 70
   128
 43
0.0
 10
784.1404520241
 20
-504.820150025
 10
784.0102578236
 20
-506.7096852422
 10
783.6232265805
 20
-508.6979978886
 10
782.9899154983
 20
-510.7308519784
 10
782.1275996524
 20
-512.7527965511
 10
781.059800771
 20
-514.7086782297
 10
779.8156456242
 20
-516.5451456607
 10
778.4290715211
 20
-518.2121047997
 10
776.9379005887
 20
-519.6640853469
 10
775.3828080828
 20
-520.861481058
 10
773.8062128733
 20
-521.7716300994
 10
772.2511203674
 20
-522.3697059779
 10
770.759949435
 20
-522.6393947424
 10
769.3733753319
 20
-522.5733399867
 10
768.1292201851
 20
-522.1733435121
 10
767.0614213038
 20
-521.4503161799
 10
766.1991054578
 20
-520.4239802907
 10
765.5657943756
 20
-519.1223316124
 10
765.1787631325
 20
-517.5808757276
 10
765.048568932
 20
-515.8416595346
 10
765.1787631325
 20
-513.9521243173
 10
765.5657943756
 20
-511.9638116709
 10
766.1991054578
 20
-509.9309575812
 10
767.0614213038
 20
-507.9090130084
 10
768.1292201851
 20
-505.9531313298
 10
769.3733753319
 20
-504.1166638989
 10
770.759949435
 20
-502.4497047599
 10
772.2511203674
 20
-500.9977242127
 10
773.8062128733
 20
-499.8003285015
 10
775.3828080828
 20
-498.8901794601
 10
776.9379005887
 20
-498.2921035817
 10
778.4290715211
 20
-498.0224148171
 10
779.8156456242
 20
-498.0884695729
 10
781.059800771
 20
-498.4884660474
 10
782.1275996524
 20
-499.2114933797
 10
782.9899154983
 20
-500.2378292688
 10
783.6232265805
 20
-501.5394779472
 10
784.0102578236
 20
-503.080933832
 10
784.1404520241
 20
-504.820150025
  0
LWPOLYLINE
  5
196
330
1F
100
AcDbEntity
  8
0
  6
Continuous
 62
     7
370
    25
100
AcDbPolyline
 90
       39
 70
   128
 43
0.0
 10
631.4760979659
 20
-592.9514056962
 10
631.3459037654
 20
-594.8409409135
 10
630.9588725224
 20
-596.8292535599
 10
630.3255614402
 20
-598.8621076496
 10
629.4632455942
 20
-600.8840522224
 10
628.3954467128
 20
-602.839933901
 10
627.151291566
 20
-604.6764013319
 10
625.7647174629
 20
-606.3433604709
 10
624.2735465305
 20
-607.7953410181
 10
622.7184540247
 20
-608.9927367293
 10
621.1418588151
 20
-609.9028857707
 10
619.5867663092
 20
-610.5009616491
 10
618.0955953768
 20
-610.7706504137
 10
616.7090212737
 20
-610.7045956579
 10
615.4648661269
 20
-610.3045991834
 10
614.3970672456
 20
-609.5815718511
 10
613.5347513996
 20
-608.555235962
 10
612.9014403174
 20
-607.2535872837
 10
612.5144090743
 20
-605.7121313988
 10
612.3842148739
 20
-603.9729152058
 10
612.5144090743
 20
-602.0833799886
 10
612.9014403174
 20
-600.0950673422
 10
613.5347513996
 20
-598.0622132524
 10
614.3970672456
 20
-596.0402686797
 10
615.4648661269
 20
-594.0843870011
 10
616.7090212737
 20
-592.2479195701
 10
618.0955953768
 20
-590.5809604311
 10
619.5867663092
 20
-589.1289798839
 10
621.1418588151
 20
-587.9315841728
 10
622.7184540247
 20
-587.0214351314
 10
624.2735465305
 20
-586.4233592529
 10
625.7647174629
 20
-586.1536704884
 10
627.151291566
 20
-586.2197252441
 10
628.3954467128
 20
-586.6197217187
 10
629.4632455942
 20
-587.3427490509
 10
630.3255614402
 20
-588.3690849401
 10
630.9588725224
 20
-589.6707336184
 10
631.3459037654
 20
-591.2121895032
 10
631.4760979659
 20
-592.9514056962
  0
LWPOLYLINE
  5
197
330
1F
100
AcDbEntity
  8
0
  6
Continuous
 62
     7
370
    25
100
AcDbPolyline
 90
       39
 70
   128
 43
0.0
 10
555.1439209368
 20
-484.3444093954
 10
555.0137267363
 20
-486.2339446126
 10
554.6266954933
 20
-488.2222572591
 10
553.9933844111
 20
-490.2551113488
 10
553.1310685651
 20
-492.2770559216
 10
552.0632696837
 20
-494.2329376002
 10
550.8191145369
 20
-496.0694050311
 10
549.4325404338
 20
-497.7363641701
 10
547.9413695014
 20
-499.1883447173
 10
546.3862769956
 20
-500.3857404284
 10
544.809681786
 20
-501.2958894698
 10
543.2545892801
 20
-501.8939653483
 10
541.7634183478
 20
-502.1636541129
 10
540.3768442447
 20
-502.0975993571
 10
539.1326890979
 20
-501.6976028825
 10
538.0648902165
 20
-500.9745755503
 10
537.2025743705
 20
-499.9482396612
 10
536.5692632883
 20
-498.6465909828
 10
536.1822320453
 20
-497.105135098
 10
536.0520378448
 20
-495.365918905
 10
536.1822320453
 20
-493.4763836878
 10
536.5692632883
 20
-491.4880710413
 10
537.2025743705
 20
-489.4552169516
 10
538.0648902165
 20
-487.4332723788
 10
539.1326890979
 20
-485.4773907002
 10
540.3768442447
 20
-483.6409232693
 10
541.7634183478
 20
-481.9739641303
 10
543.2545892801
 20
-480.5219835831
 10
544.809681786
 20
-479.324587872
 10
546.3862769956
 20
-478.4144388306
 10
547.9413695014
 20
-477.8163629521
 10
549.4325404338
 20
-477.5466741875
 10
550.8191145369
 20
-477.6127289433
 10
552.0632696837
 20
-478.0127254179
 10
553.1310685651
 20
-478.7357527501
 10
553.9933844111
 20
-479.7620886392
 10
554.6266954933
 20
-481.0637373176
 10
555.0137267363
 20
-482.6051932024
 10
555.1439209368
 20
-484.3444093954
  0
LWPOLYLINE
  5
198
330
1F
100
AcDbEntity
  8
0
  6
Continuous
 62
     7
370
    25
100
AcDbPolyline
 90
       39
 70
   128
 43
0.0
 10
631.4760979659
 20
-287.6061574233
 10
631.3459037654
 20
-289.4956926406
 10
630.9588725224
 20
-291.484005287
 10
630.3255614402
 20
-293.5168593767
 10
629.4632455942
 20
-295.5388039495
 10
628.3954467128
 20
-297.4946856281
 10
627.151291566
 20
-299.331153059
 10
625.7647174629
 20
-300.998112198
 10
624.2735465305
 20
-302.4500927452
 10
622.7184540247
 20
-303.6474884563
 10
621.1418588151
 20
-304.5576374978
 10
619.5867663092
 20
-305.1557133762
 10
618.0955953768
 20
-305.4254021408
 10
616.7090212737
 20
-305.359347385
 10
615.464866127
 20
-304.9593509104
 10
614.3970672456
 20
-304.2363235782
 10
613.5347513996
 20
-303.2099876891
 10
612.9014403174
 20
-301.9083390107
 10
612.5144090743
 20
-300.3668831259
 10
612.3842148739
 20
-298.6276669329
 10
612.5144090743
 20
-296.7381317157
 10
612.9014403174
 20
-294.7498190692
 10
613.5347513996
 20
-292.7169649795
 10
614.3970672456
 20
-290.6950204068
 10
615.464866127
 20
-288.7391387281
 10
616.7090212737
 20
-286.9026712972
 10
618.0955953768
 20
-285.2357121582
 10
619.5867663092
 20
-283.783731611
 10
621.1418588151
 20
-282.5863358999
 10
622.7184540247
 20
-281.6761868585
 10
624.2735465305
 20
-281.07811098
 10
625.7647174629
 20
-280.8084222154
 10
627.151291566
 20
-280.8744769712
 10
628.3954467128
 20
-281.2744734458
 10
629.4632455942
 20
-281.997500778
 10
630.3255614402
 20
-283.0238366671
 10
630.9588725224
 20
-284.3254853455
 10
631.3459037654
 20
-285.8669412303
 10
631.4760979659
 20
-287.6061574233
  0
ARC
  5
199
330
1F
100
AcDbEntity
  8
0
  6
Continuous
 62
     7
370
    25
100
AcDbCircle
 10
754.2835412903
 20
-306.3484636903
 30
0.0
 40
58.36080445668122
100
AcDbArc
 50
35.2957665776
 51
83.2640377403
  0
ARC
  5
19A
330
1F
100
AcDbEntity
  8
0
  6
Continuous
 62
     7
370
    25
100
AcDbCircle
 10
643.731969751
 20
-497.8911113217
 30
0.0
 40
58.41609147620242
100
AcDbArc
 50
217.8764919926
 51
265.5471403996
  0
ARC
  5
19B
330
1F
100
AcDbEntity
  8
0
  6
Continuous
 62
     7
370
    25
100
AcDbCircle
 10
667.2692596024
 20
-508.024940214
 30
0.0
 40
61.54759526260018
100
AcDbArc
 50
218.2904342311
 51
227.5791960987
  0
ARC
  5
19C
330
1F
100
AcDbEntity
  8
0
  6
Continuous
 62
     7
370
    25
100
AcDbCircle
 10
774.6362080086
 20
-322.4798729317
 30
0.0
 40
62.32165560505168
100
AcDbArc
 50
72.476551325
 51
83.006816902
  0
LINE
  5
19D
330
1F
100
AcDbEntity
  8
0
  6
Continuous
 62
     7
370
    25
100
AcDbLine
 10
837.5492622458
 20
-403.1996157719
 30
0.0
 11
837.4301411759
 21
-403.1281761194
 31
0.0
  0
LWPOLYLINE
  5
19E
330
1F
100
AcDbEntity
  8
0
  6
Continuous
 62
     7
370
    25
100
AcDbPolyline
 90
        3
 70
   128
 43
0.0
 10
824.6126396683
 20
-424.575746751
 10
824.799398475
 20
-424.7000585441
 10
824.9311570179
 20
-424.779397679
  0
LINE
  5
19F
330
1F
100
AcDbEntity
  8
0
  6
Continuous
 62
     7
370
    25
100
AcDbLine
 10
781.6702304082
 20
-499.9849377084
 30
0.0
 11
781.5511093382
 21
-499.9134980559
 31
0.0
  0
LWPOLYLINE
  5
1A0
330
1F
100
AcDbEntity
  8
0
  6
Continuous
 62
     7
370
    25
100
AcDbPolyline
 90
        3
 70
   128
 43
0.0
 10
768.7336078307
 20
-521.3610686875
 10
768.9203666373
 20
-521.4853804806
 10
769.0521251803
 20
-521.5647196154
  0
LINE
  5
1A1
330
1F
100
AcDbEntity
  8
0
  6
Continuous
 62
     7
370
    25
100
AcDbLine
 10
858.0024074373
 20
-303.2466857363
 30
0.0
 11
857.8832863673
 21
-303.1752460838
 31
0.0
  0
LWPOLYLINE
  5
1A2
330
1F
100
AcDbEntity
  8
0
  6
Continuous
 62
     7
370
    25
100
AcDbPolyline
 90
        3
 70
   128
 43
0.0
 10
845.0657848598
 20
-324.6228167154
 10
845.2525436664
 20
-324.7471285085
 10
845.3843022094
 20
-324.8264676434
  0
LINE
  5
1A3
330
1F
100
AcDbEntity
  8
0
  6
Continuous
 62
     7
370
    25
100
AcDbLine
 10
705.3380533791
 20
-567.6691026937
 30
0.0
 11
705.2189323091
 21
-567.5976630412
 31
0.0
  0
LWPOLYLINE
  5
1A4
330
1F
100
AcDbEntity
  8
0
  6
Continuous
 62
     7
370
    25
100
AcDbPolyline
 90
        3
 70
   128
 43
0.0
 10
692.4014308016
 20
-589.0452336728
 10
692.5881896082
 20
-589.1695454659
 10
692.7199481512
 20
-589.2488846008
  0
LINE
  5
1A5
330
1F
100
AcDbEntity
  8
0
  6
Continuous
 62
     7
370
    25
100
AcDbLine
 10
837.5492622458
 20
-226.9084544857
 30
0.0
 11
837.4301411759
 21
-226.8370148333
 31
0.0
  0
LWPOLYLINE
  5
1A6
330
1F
100
AcDbEntity
  8
0
  6
Continuous
 62
     7
370
    25
100
AcDbPolyline
 90
        3
 70
   128
 43
0.0
 10
824.6126396684
 20
-248.2845854648
 10
824.799398475
 20
-248.408897258
 10
824.9311570179
 20
-248.4882363928
  0
LINE
  5
1A7
330
1F
100
AcDbEntity
  8
0
  6
Continuous
 62
     7
370
    25
100
AcDbLine
 10
629.00587635
 20
-588.1161933796
 30
0.0
 11
628.88675528
 21
-588.0447537272
 31
0.0
  0
LWPOLYLINE
  5
1A8
330
1F
100
AcDbEntity
  8
0
  6
Continuous
 62
     7
370
    25
100
AcDbPolyline
 90
        3
 70
   128
 43
0.0
 10
616.0692537725
 20
-609.4923243587
 10
616.2560125791
 20
-609.6166361518
 10
616.3877711221
 20
-609.6959752867
  0
LINE
  5
1A9
330
1F
100
AcDbEntity
  8
0
  6
Continuous
 62
     7
370
    25
100
AcDbLine
 10
781.6702304082
 20
-194.6396894355
 30
0.0
 11
781.5511093382
 21
-194.568249783
 31
0.0
  0
LWPOLYLINE
  5
1AA
330
1F
100
AcDbEntity
  8
0
  6
Continuous
 62
     7
370
    25
100
AcDbPolyline
 90
        3
 70
   128
 43
0.0
 10
768.7336078307
 20
-216.0158204145
 10
768.9203666373
 20
-216.1401322077
 10
769.0521251803
 20
-216.2194713425
  0
LINE
  5
1AB
330
1F
100
AcDbEntity
  8
0
  6
Continuous
 62
     7
370
    25
100
AcDbLine
 10
573.1268445124
 20
-555.8474283294
 30
0.0
 11
573.0077234424
 21
-555.7759886769
 31
0.0
  0
LWPOLYLINE
  5
1AC
330
1F
100
AcDbEntity
  8
0
  6
Continuous
 62
     7
370
    25
100
AcDbPolyline
 90
        3
 70
   128
 43
0.0
 10
560.1902219349
 20
-577.2235593084
 10
560.3769807415
 20
-577.3478711016
 10
560.5087392845
 20
-577.4272102364
  0
LINE
  5
1AD
330
1F
100
AcDbEntity
  8
0
  6
Continuous
 62
     7
370
    25
100
AcDbLine
 10
705.3380533791
 20
-215.0867801214
 30
0.0
 11
705.2189323091
 21
-215.015340469
 31
0.0
  0
LWPOLYLINE
  5
1AE
330
1F
100
AcDbEntity
  8
0
  6
Continuous
 62
     7
370
    25
100
AcDbPolyline
 90
        3
 70
   128
 43
0.0
 10
692.4014308016
 20
-236.4629111005
 10
692.5881896082
 20
-236.5872228936
 10
692.7199481512
 20
-236.6665620285
  0
LINE
  5
1AF
330
1F
100
AcDbEntity
  8
0
  6
Continuous
 62
     7
370
    25
100
AcDbLine
 10
552.6736993209
 20
-479.5091970788
 30
0.0
 11
552.554578251
 21
-479.4377574264
 31
0.0
  0
LWPOLYLINE
  5
1B0
330
1F
100
AcDbEntity
  8
0
  6
Continuous
 62
     7
370
    25
100
AcDbPolyline
 90
        3
 70
   128
 43
0.0
 10
539.7370767434
 20
-500.8853280579
 10
539.9238355501
 20
-501.009639851
 10
540.055594093
 20
-501.0889789859
  0
LINE
  5
1B1
330
1F
100
AcDbEntity
  8
0
  6
Continuous
 62
     7
370
    25
100
AcDbLine
 10
629.00587635
 20
-282.7709451067
 30
0.0
 11
628.88675528
 21
-282.6995054543
 31
0.0
  0
LWPOLYLINE
  5
1B2
330
1F
100
AcDbEntity
  8
0
  6
Continuous
 62
     7
370
    25
100
AcDbPolyline
 90
        3
 70
   128
 43
0.0
 10
616.0692537725
 20
-304.1470760858
 10
616.2560125791
 20
-304.2713878789
 10
616.3877711221
 20
-304.3507270138
  0
LINE
  5
1B3
330
1F
100
AcDbEntity
  8
0
  6
Continuous
 62
     7
370
    25
100
AcDbLine
 10
573.1268445124
 20
-379.5562670432
 30
0.0
 11
573.0077234424
 21
-379.4848273908
 31
0.0
  0
LWPOLYLINE
  5
1B4
330
1F
100
AcDbEntity
  8
0
  6
Continuous
 62
     7
370
    25
100
AcDbPolyline
 90
        3
 70
   128
 43
0.0
 10
560.1902219349
 20
-400.9323980223
 10
560.3769807415
 20
-401.0567098154
 10
560.5087392845
 20
-401.1360489503
  0
LWPOLYLINE
  5
1B5
330
1F
100
AcDbEntity
  8
0
  6
Continuous
 62
     1
370
    25
100
AcDbPolyline
 90
       57
 70
   128
 43
0.0
 10
871.1499414491
 20
-302.7344249204
 10
871.025118816
 20
-310.3759944265
 10
870.6508318977
 20
-318.1506015319
 10
870.0276233743
 20
-326.0469737996
 10
869.1563968387
 20
-334.0536622446
 10
868.0384154861
 20
-342.1590579341
 10
866.6753002825
 20
-350.3514088194
 10
865.0690276147
 20
-358.6188367747
 10
863.2219264244
 20
-366.94935482
 10
861.1366748318
 20
-375.3308845005
 10
858.8162962524
 20
-383.7512733994
 10
856.2641550133
 20
-392.1983127578
 10
853.4839514753
 20
-400.6597551762
 10
850.4797166677
 20
-409.123332372
 10
847.2558064438
 20
-417.5767729674
 10
843.8168951652
 20
-426.0078202818
 10
840.1679689245
 20
-434.4042501024
 10
836.3143183159
 20
-442.7538884088
 10
832.2615307644
 20
-451.0446290237
 10
828.0154824245
 20
-459.2644511657
 10
823.5823296603
 20
-467.4014368786
 10
818.9685001195
 20
-475.4437883111
 10
814.180683414
 20
-483.3798448223
 10
809.2258214201
 20
-491.1980998891
 10
804.1110982141
 20
-498.887217789
 10
798.8439296556
 20
-506.4360500362
 10
793.4319526356
 20
-513.8336515455
 10
787.8830140033
 20
-521.0692965021
 10
782.2051591893
 20
-528.1324939124
 10
776.4066205402
 20
-535.0130028154
 10
770.4958053827
 20
-541.7008471311
 10
764.4812838337
 20
-548.1863301246
 10
758.3717763745
 20
-554.4600484654
 10
752.1761412068
 20
-560.5129058619
 10
745.9033614093
 20
-566.3361262493
 10
739.562531913
 20
-571.921266515
 10
733.1628463145
 20
-577.2602287394
 10
726.7135835461
 20
-582.3452719377
 10
720.2240944223
 20
-587.1690232834
 10
713.7037880819
 20
-591.7244887982
 10
707.1621183457
 20
-596.0050634927
 10
700.6085700094
 20
-600.0045409427
 10
694.0526450917
 20
-603.7171222883
 10
687.5038490568
 20
-607.1374246415
 10
680.9716770331
 20
-610.2604888908
 10
674.4656000454
 20
-613.0817868917
 10
667.9950512833
 20
-615.5972280318
 10
661.5694124241
 20
-617.8031651619
 10
655.1980000297
 20
-619.696399884
 10
648.890052039
 20
-621.2741871888
 10
642.6547143735
 20
-622.5342394355
 10
636.5010276768
 20
-623.4747296689
 10
630.4379142062
 20
-624.094294268
 10
624.4741648968
 20
-624.3920349234
 10
618.6184266147
 20
-624.3675199396
 10
612.8791896207
 20
-624.0207848609
 10
612.7634151335
 20
-624.0103636451
  0
LWPOLYLINE
  5
1B6
330
1F
100
AcDbEntity
  8
0
  6
Continuous
 62
     1
370
    25
100
AcDbPolyline
 90
       15
 70
   128
 43
0.0
 10
848.2369982765
 20
-216.8583437487
 10
850.4797166677
 20
-220.2108510135
 10
853.4839514753
 20
-225.205812532
 10
856.2641550133
 20
-230.4573002713
 10
858.8162962524
 20
-235.957700076
 10
861.1366748318
 20
-241.6990368923
 10
863.2219264244
 20
-247.6729863308
 10
865.0690276147
 20
-253.8708867359
 10
866.6753002825
 20
-260.2837517444
 10
868.0384154861
 20
-266.9022833153
 10
869.1563968387
 20
-273.7168852104
 10
870.0276233743
 20
-280.7176769085
 10
870.6508318977
 20
-287.894507931
 10
871.025118816
 20
-295.2369725588
 10
871.1499414491
 20
-302.7344249204
  0
LWPOLYLINE
  5
1B7
330
1F
100
AcDbEntity
  8
0
  6
Continuous
 62
     1
370
    25
100
AcDbPolyline
 90
       15
 70
   128
 43
0.0
 10
892.3631448847
 20
-314.9805465978
 10
892.2383222516
 20
-307.4830942362
 10
891.8640353333
 20
-300.1406296083
 10
891.2408268099
 20
-292.9637985858
 10
890.3696002743
 20
-285.9630068877
 10
889.2516189217
 20
-279.1484049926
 10
887.8885037181
 20
-272.5298734218
 10
886.2822310503
 20
-266.1170084132
 10
884.43512986
 20
-259.9191080082
 10
882.3498782674
 20
-253.9451585697
 10
880.029499688
 20
-248.2038217533
 10
877.4773584489
 20
-242.7034219486
 10
874.6971549109
 20
-237.4519342094
 10
871.6929201033
 20
-232.4569726908
 10
869.7602419182
 20
-229.5508048873
  0
LWPOLYLINE
  5
1B8
330
1F
100
AcDbEntity
  8
0
  6
Continuous
 62
     1
370
    25
100
AcDbPolyline
 90
       56
 70
   128
 43
0.0
 10
634.4309362308
 20
-636.2965864547
 10
639.8316300503
 20
-636.6136416169
 10
645.6873683324
 20
-636.6381566007
 10
651.6511176418
 20
-636.3404159453
 10
657.7142311124
 20
-635.7208513462
 10
663.8679178091
 20
-634.7803611128
 10
670.1032554746
 20
-633.5203088661
 10
676.4112034653
 20
-631.9425215613
 10
682.7826158597
 20
-630.0492868392
 10
689.2082547189
 20
-627.8433497091
 10
695.678803481
 20
-625.3279085691
 10
702.1848804687
 20
-622.5066105682
 10
708.7170524924
 20
-619.3835463189
 10
715.2658485273
 20
-615.9632439657
 10
721.821773445
 20
-612.25066262
 10
728.3753217813
 20
-608.25118517
 10
734.9169915175
 20
-603.9706104756
 10
741.4372978579
 20
-599.4151449607
 10
747.9267869817
 20
-594.591393615
 10
754.3760497501
 20
-589.5063504167
 10
760.7757353486
 20
-584.1673881923
 10
767.1165648449
 20
-578.5822479267
 10
773.3893446424
 20
-572.7590275392
 10
779.5849798101
 20
-566.7061701428
 10
785.6944872693
 20
-560.4324518019
 10
791.7090088183
 20
-553.9469688085
 10
797.6198239758
 20
-547.2591244928
 10
803.4183626249
 20
-540.3786155897
 10
809.0962174389
 20
-533.3154181794
 10
814.6451560712
 20
-526.0797732228
 10
820.0571330912
 20
-518.6821717135
 10
825.3243016497
 20
-511.1333394663
 10
830.4390248557
 20
-503.4442215664
 10
835.3938868496
 20
-495.6259664996
 10
840.1817035551
 20
-487.6899099884
 10
844.7955330959
 20
-479.647558556
 10
849.2286858601
 20
-471.510572843
 10
853.4747342
 20
-463.290750701
 10
857.5275217515
 20
-455.0000100861
 10
861.3811723601
 20
-446.6503717797
 10
865.0300986008
 20
-438.2539419591
 10
868.4690098794
 20
-429.8228946448
 10
871.6929201033
 20
-421.3694540493
 10
874.6971549109
 20
-412.9058768535
 10
877.4773584489
 20
-404.4444344351
 10
880.029499688
 20
-395.9973950767
 10
882.3498782674
 20
-387.5770061778
 10
884.43512986
 20
-379.1954764973
 10
886.2822310503
 20
-370.864958452
 10
887.8885037181
 20
-362.5975304967
 10
889.2516189217
 20
-354.4051796115
 10
890.3696002743
 20
-346.2997839219
 10
891.2408268099
 20
-338.2930954769
 10
891.8640353333
 20
-330.3967232093
 10
892.2383222516
 20
-322.6221161039
 10
892.3631448847
 20
-314.9805465978
  0
LWPOLYLINE
  5
1B9
330
1F
100
AcDbEntity
  8
0
  6
Continuous
 62
     1
370
    25
100
AcDbPolyline
 90
       61
 70
   128
 43
0.0
 10
761.1289185892
 20
-248.3905107721
 10
758.7199632404
 20
-248.1313502223
 10
753.9476934765
 20
-247.8697691146
 10
749.0614728872
 20
-247.9279202706
 10
744.0714289108
 20
-248.305683163
 10
738.9879041755
 20
-249.0022748206
 10
733.8214350627
 20
-250.0162514508
 10
728.5827298683
 20
-251.3455114322
 10
723.2826466091
 20
-252.9872996704
 10
717.9321705169
 20
-254.9382133088
 10
712.5423912704
 20
-257.1942087807
 10
707.1244800102
 20
-259.7506101911
 10
701.6896661847
 20
-262.6021190077
 10
696.2492142756
 20
-265.7428250431
 10
690.8144004501
 20
-269.1662187043
 10
685.3964891899
 20
-272.8652044852
 10
680.0067099434
 20
-276.832115673
 10
674.6562338512
 20
-281.0587302384
 10
669.356150592
 20
-285.5362878773
 10
664.1174453977
 20
-290.2555081677
 10
658.9509762848
 20
-295.206609805
 10
653.8674515495
 20
-300.379330875
 10
648.8774075731
 20
-305.7629501232
 10
643.9911869838
 20
-311.3463091767
 10
639.2189172199
 20
-317.1178356713
 10
634.5704895392
 20
-323.0655672369
 10
630.055538518
 20
-329.1771762916
 10
625.6834220816
 20
-335.4399955924
 10
621.4632021092
 20
-341.8410444899
 10
617.4036256509
 20
-348.3670558327
 10
613.513106799
 20
-355.0045034658
 10
609.7997092479
 20
-361.7396302655
 10
606.2711295811
 20
-368.5584766528
 10
602.9346813187
 20
-375.4469095274
 10
599.7972797592
 20
-382.3906515602
 10
596.8654276466
 20
-389.3753107856
 10
594.145201692
 20
-396.3864104306
 10
591.6422399792
 20
-403.4094189206
 10
589.3617302784
 20
-410.4297799981
 10
587.3083992943
 20
-417.4329428927
 10
585.486502869
 20
-424.4043924798
 10
583.8998171609
 20
-431.3296793656
 10
582.5516308184
 20
-438.1944498355
 10
581.4447381638
 20
-444.9844756044
 10
580.581433401
 20
-451.685683307
 10
579.9635058609
 20
-458.284183667
 10
579.5922362929
 20
-464.7663002848
 10
579.4683942096
 20
-471.1185979839
 10
579.5922362929
 20
-477.3279106571
 10
579.9635058609
 20
-483.3813685559
 10
580.581433401
 20
-489.2664249642
 10
581.4447381638
 20
-494.9708822041
 10
582.5516308184
 20
-500.4829169168
 10
583.8998171609
 20
-505.7911045685
 10
585.486502869
 20
-510.8844431299
 10
587.3083992943
 20
-515.7523758789
 10
589.3617302784
 20
-520.3848132815
 10
591.6422399792
 20
-524.7721539039
 10
594.145201692
 20
-528.9053043127
 10
596.8654276466
 20
-532.7756979224
 10
597.6220425688
 20
-533.7563362423
  0
LWPOLYLINE
  5
1BA
330
1F
100
AcDbEntity
  8
0
  6
Continuous
 62
     1
370
    25
100
AcDbPolyline
 90
       61
 70
   128
 43
0.0
 10
618.9617932321
 20
-546.1627846142
 10
618.0786310822
 20
-545.0218195997
 10
615.3584051276
 20
-541.15142599
 10
612.8554434148
 20
-537.0182755813
 10
610.574933714
 20
-532.6309349589
 10
608.5216027299
 20
-527.9984975562
 10
606.6997063046
 20
-523.1305648072
 10
605.1130205965
 20
-518.0372262458
 10
603.764834254
 20
-512.7290385941
 10
602.6579415994
 20
-507.2170038815
 10
601.7946368366
 20
-501.5125466416
 10
601.1767092965
 20
-495.6274902332
 10
600.8054397285
 20
-489.5740323345
 10
600.6815976452
 20
-483.3647196612
 10
600.8054397285
 20
-477.0124219622
 10
601.1767092965
 20
-470.5303053444
 10
601.7946368366
 20
-463.9318049844
 10
602.6579415994
 20
-457.2305972818
 10
603.764834254
 20
-450.4405715129
 10
605.1130205965
 20
-443.575801043
 10
606.6997063046
 20
-436.6505141572
 10
608.5216027299
 20
-429.67906457
 10
610.574933714
 20
-422.6759016755
 10
612.8554434148
 20
-415.655540598
 10
615.3584051276
 20
-408.6325321079
 10
618.0786310822
 20
-401.6214324629
 10
621.0104831948
 20
-394.6367732375
 10
624.1478847542
 20
-387.6930312047
 10
627.4843330166
 20
-380.8045983301
 10
631.0129126835
 20
-373.9857519428
 10
634.7263102346
 20
-367.2506251432
 10
638.6168290865
 20
-360.6131775101
 10
642.6764055448
 20
-354.0871661672
 10
646.8966255172
 20
-347.6861172698
 10
651.2687419536
 20
-341.423297969
 10
655.7836929748
 20
-335.3116889143
 10
660.4321206555
 20
-329.3639573486
 10
665.2043904194
 20
-323.5924308541
 10
670.0906110087
 20
-318.0090718005
 10
675.0806549851
 20
-312.6254525523
 10
680.1641797204
 20
-307.4527314824
 10
685.3306488333
 20
-302.5016298451
 10
690.5693540276
 20
-297.7824095546
 10
695.8694372868
 20
-293.3048519157
 10
701.219913379
 20
-289.0782373503
 10
706.6096926255
 20
-285.1113261626
 10
712.0276038857
 20
-281.4123403816
 10
717.4624177112
 20
-277.9889467204
 10
722.9028696203
 20
-274.8482406851
 10
728.3376834458
 20
-271.9967318684
 10
733.755594706
 20
-269.440330458
 10
739.1453739525
 20
-267.1843349861
 10
744.4958500447
 20
-265.2334213478
 10
749.7959333039
 20
-263.5916331095
 10
755.0346384983
 20
-262.2623731282
 10
760.2011076111
 20
-261.248396498
 10
765.2846323464
 20
-260.5518048404
 10
770.2746763228
 20
-260.1740419479
 10
775.1608969121
 20
-260.115890792
 10
779.933166676
 20
-260.3774718996
 10
782.2239476051
 20
-260.6218502897
  0
LWPOLYLINE
  5
1BB
330
1F
100
AcDbEntity
  8
0
  6
Continuous
 62
     1
370
    25
100
AcDbPolyline
 90
       20
 70
   128
 43
0.0
 10
837.4301411759
 20
-403.1281761194
 10
837.0202438102
 20
-402.9207284577
 10
835.8149145422
 20
-402.5871287347
 10
834.476265895
 20
-402.5805270718
 10
833.0428083527
 20
-402.9011133869
 10
831.5557798792
 20
-403.5396649954
 10
830.057959576
 20
-404.4778119302
 10
828.5924370062
 20
-405.6885654119
 10
827.2013725859
 20
-407.1370942674
 10
825.9247847058
 20
-408.7817269587
 10
824.799398475
 20
-410.5751503978
 10
823.8575892061
 20
-412.4657710576
 10
823.1264510373
 20
-414.3991992239
 10
822.6270174825
 20
-416.3198136886
 10
822.3736563356
 20
-418.1723618704
 10
822.3736563356
 20
-419.903549331
 10
822.6270174825
 20
-421.4635729592
 10
823.1264510373
 20
-422.8075537154
 10
823.8575892061
 20
-423.8968277203
 10
824.6126396683
 20
-424.575746751
  0
LWPOLYLINE
  5
1BC
330
1F
100
AcDbEntity
  8
0
  6
Continuous
 62
     1
370
    25
100
AcDbPolyline
 90
       20
 70
   128
 43
0.0
 10
781.5511093382
 20
-499.9134980559
 10
781.1412119726
 20
-499.7060503942
 10
779.9358827046
 20
-499.3724506712
 10
778.5972340573
 20
-499.3658490083
 10
777.1637765151
 20
-499.6864353234
 10
775.6767480415
 20
-500.3249869319
 10
774.1789277383
 20
-501.2631338667
 10
772.7134051686
 20
-502.4738873484
 10
771.3223407483
 20
-503.9224162039
 10
770.0457528682
 20
-505.5670488952
 10
768.9203666373
 20
-507.3604723343
 10
767.9785573685
 20
-509.2510929941
 10
767.2474191997
 20
-511.1845211604
 10
766.7479856448
 20
-513.1051356251
 10
766.4946244979
 20
-514.9576838069
 10
766.4946244979
 20
-516.6888712675
 10
766.7479856448
 20
-518.2488948957
 10
767.2474191997
 20
-519.5928756519
 10
767.9785573685
 20
-520.6821496568
 10
768.7336078307
 20
-521.3610686875
  0
LWPOLYLINE
  5
1BD
330
1F
100
AcDbEntity
  8
0
  6
Continuous
 62
     1
370
    25
100
AcDbPolyline
 90
       20
 70
   128
 43
0.0
 10
857.8832863673
 20
-303.1752460838
 10
857.4733890017
 20
-302.9677984221
 10
856.2680597337
 20
-302.6341986991
 10
854.9294110864
 20
-302.6275970362
 10
853.4959535442
 20
-302.9481833513
 10
852.0089250706
 20
-303.5867349598
 10
850.5111047674
 20
-304.5248818946
 10
849.0455821976
 20
-305.7356353763
 10
847.6545177774
 20
-307.1841642318
 10
846.3779298973
 20
-308.8287969231
 10
845.2525436664
 20
-310.6222203622
 10
844.3107343976
 20
-312.512841022
 10
843.5795962288
 20
-314.4462691884
 10
843.0801626739
 20
-316.3668836531
 10
842.826801527
 20
-318.2194318348
 10
842.826801527
 20
-319.9506192954
 10
843.0801626739
 20
-321.5106429236
 10
843.5795962288
 20
-322.8546236798
 10
844.3107343976
 20
-323.9438976847
 10
845.0657848598
 20
-324.6228167154
  0
LWPOLYLINE
  5
1BE
330
1F
100
AcDbEntity
  8
0
  6
Continuous
 62
     1
370
    25
100
AcDbPolyline
 90
       20
 70
   128
 43
0.0
 10
705.2189323091
 20
-567.5976630412
 10
704.8090349435
 20
-567.3902153795
 10
703.6037056755
 20
-567.0566156565
 10
702.2650570283
 20
-567.0500139936
 10
700.831599486
 20
-567.3706003087
 10
699.3445710124
 20
-568.0091519172
 10
697.8467507092
 20
-568.947298852
 10
696.3812281395
 20
-570.1580523337
 10
694.9901637192
 20
-571.6065811892
 10
693.7135758391
 20
-573.2512138805
 10
692.5881896082
 20
-575.0446373196
 10
691.6463803394
 20
-576.9352579794
 10
690.9152421706
 20
-578.8686861458
 10
690.4158086157
 20
-580.7893006105
 10
690.1624474688
 20
-582.6418487922
 10
690.1624474688
 20
-584.3730362528
 10
690.4158086157
 20
-585.933059881
 10
690.9152421706
 20
-587.2770406372
 10
691.6463803394
 20
-588.3663146421
 10
692.4014308016
 20
-589.0452336728
  0
LWPOLYLINE
  5
1BF
330
1F
100
AcDbEntity
  8
0
  6
Continuous
 62
     1
370
    25
100
AcDbPolyline
 90
       20
 70
   128
 43
0.0
 10
837.4301411759
 20
-226.8370148333
 10
837.0202438102
 20
-226.6295671716
 10
835.8149145422
 20
-226.2959674485
 10
834.476265895
 20
-226.2893657857
 10
833.0428083528
 20
-226.6099521008
 10
831.5557798792
 20
-227.2485037093
 10
830.057959576
 20
-228.186650644
 10
828.5924370062
 20
-229.3974041258
 10
827.2013725859
 20
-230.8459329812
 10
825.9247847058
 20
-232.4905656726
 10
824.799398475
 20
-234.2839891117
 10
823.8575892062
 20
-236.1746097715
 10
823.1264510373
 20
-238.1080379378
 10
822.6270174825
 20
-240.0286524025
 10
822.3736563356
 20
-241.8812005843
 10
822.3736563356
 20
-243.6123880449
 10
822.6270174825
 20
-245.172411673
 10
823.1264510373
 20
-246.5163924293
 10
823.8575892062
 20
-247.6056664342
 10
824.6126396684
 20
-248.2845854648
  0
LWPOLYLINE
  5
1C0
330
1F
100
AcDbEntity
  8
0
  6
Continuous
 62
     1
370
    25
100
AcDbPolyline
 90
       20
 70
   128
 43
0.0
 10
628.88675528
 20
-588.0447537272
 10
628.4768579144
 20
-587.8373060655
 10
627.2715286464
 20
-587.5037063424
 10
625.9328799992
 20
-587.4971046795
 10
624.4994224569
 20
-587.8176909947
 10
623.0123939833
 20
-588.4562426032
 10
621.5145736801
 20
-589.3943895379
 10
620.0490511104
 20
-590.6051430196
 10
618.6579866901
 20
-592.0536718751
 10
617.38139881
 20
-593.6983045665
 10
616.2560125791
 20
-595.4917280056
 10
615.3142033103
 20
-597.3823486654
 10
614.5830651415
 20
-599.3157768317
 10
614.0836315866
 20
-601.2363912964
 10
613.8302704397
 20
-603.0889394782
 10
613.8302704397
 20
-604.8201269388
 10
614.0836315866
 20
-606.3801505669
 10
614.5830651415
 20
-607.7241313231
 10
615.3142033103
 20
-608.8134053281
 10
616.0692537725
 20
-609.4923243587
  0
LWPOLYLINE
  5
1C1
330
1F
100
AcDbEntity
  8
0
  6
Continuous
 62
     1
370
    25
100
AcDbPolyline
 90
       20
 70
   128
 43
0.0
 10
781.5511093382
 20
-194.568249783
 10
781.1412119726
 20
-194.3608021213
 10
779.9358827046
 20
-194.0272023983
 10
778.5972340574
 20
-194.0206007354
 10
777.1637765151
 20
-194.3411870505
 10
775.6767480415
 20
-194.979738659
 10
774.1789277383
 20
-195.9178855937
 10
772.7134051686
 20
-197.1286390755
 10
771.3223407483
 20
-198.5771679309
 10
770.0457528682
 20
-200.2218006223
 10
768.9203666373
 20
-202.0152240614
 10
767.9785573685
 20
-203.9058447212
 10
767.2474191997
 20
-205.8392728875
 10
766.7479856448
 20
-207.7598873522
 10
766.4946244979
 20
-209.612435534
 10
766.4946244979
 20
-211.3436229946
 10
766.7479856448
 20
-212.9036466227
 10
767.2474191997
 20
-214.247627379
 10
767.9785573685
 20
-215.3369013839
 10
768.7336078307
 20
-216.0158204145
  0
LWPOLYLINE
  5
1C2
330
1F
100
AcDbEntity
  8
0
  6
Continuous
 62
     1
370
    25
100
AcDbPolyline
 90
       20
 70
   128
 43
0.0
 10
573.0077234424
 20
-555.7759886769
 10
572.5978260768
 20
-555.5685410152
 10
571.3924968088
 20
-555.2349412921
 10
570.0538481615
 20
-555.2283396293
 10
568.6203906193
 20
-555.5489259444
 10
567.1333621457
 20
-556.1874775529
 10
565.6355418425
 20
-557.1256244876
 10
564.1700192727
 20
-558.3363779694
 10
562.7789548525
 20
-559.7849068248
 10
561.5023669724
 20
-561.4295395162
 10
560.3769807415
 20
-563.2229629553
 10
559.4351714727
 20
-565.1135836151
 10
558.7040333039
 20
-567.0470117814
 10
558.204599749
 20
-568.9676262461
 10
557.9512386021
 20
-570.8201744279
 10
557.9512386021
 20
-572.5513618885
 10
558.204599749
 20
-574.1113855166
 10
558.7040333039
 20
-575.4553662729
 10
559.4351714727
 20
-576.5446402778
 10
560.1902219349
 20
-577.2235593084
  0
LWPOLYLINE
  5
1C3
330
1F
100
AcDbEntity
  8
0
  6
Continuous
 62
     1
370
    25
100
AcDbPolyline
 90
       20
 70
   128
 43
0.0
 10
705.2189323091
 20
-215.015340469
 10
704.8090349435
 20
-214.8078928072
 10
703.6037056755
 20
-214.4742930842
 10
702.2650570283
 20
-214.4676914213
 10
700.831599486
 20
-214.7882777364
 10
699.3445710124
 20
-215.4268293449
 10
697.8467507092
 20
-216.3649762797
 10
696.3812281395
 20
-217.5757297614
 10
694.9901637192
 20
-219.0242586169
 10
693.7135758391
 20
-220.6688913083
 10
692.5881896082
 20
-222.4623147474
 10
691.6463803394
 20
-224.3529354071
 10
690.9152421706
 20
-226.2863635735
 10
690.4158086157
 20
-228.2069780382
 10
690.1624474688
 20
-230.0595262199
 10
690.1624474688
 20
-231.7907136805
 10
690.4158086157
 20
-233.3507373087
 10
690.9152421706
 20
-234.6947180649
 10
691.6463803394
 20
-235.7839920699
 10
692.4014308016
 20
-236.4629111005
  0
LWPOLYLINE
  5
1C4
330
1F
100
AcDbEntity
  8
0
  6
Continuous
 62
     1
370
    25
100
AcDbPolyline
 90
       20
 70
   128
 43
0.0
 10
552.554578251
 20
-479.4377574264
 10
552.1446808853
 20
-479.2303097646
 10
550.9393516173
 20
-478.8967100416
 10
549.6007029701
 20
-478.8901083787
 10
548.1672454278
 20
-479.2106946938
 10
546.6802169542
 20
-479.8492463023
 10
545.182396651
 20
-480.7873932371
 10
543.7168740813
 20
-481.9981467188
 10
542.325809661
 20
-483.4466755743
 10
541.0492217809
 20
-485.0913082657
 10
539.9238355501
 20
-486.8847317048
 10
538.9820262812
 20
-488.7753523645
 10
538.2508881124
 20
-490.7087805309
 10
537.7514545575
 20
-492.6293949956
 10
537.4980934107
 20
-494.4819431773
 10
537.4980934107
 20
-496.2131306379
 10
537.7514545575
 20
-497.7731542661
 10
538.2508881124
 20
-499.1171350223
 10
538.9820262812
 20
-500.2064090273
 10
539.7370767434
 20
-500.8853280579
  0
LWPOLYLINE
  5
1C5
330
1F
100
AcDbEntity
  8
0
  6
Continuous
 62
     1
370
    25
100
AcDbPolyline
 90
       20
 70
   128
 43
0.0
 10
628.88675528
 20
-282.6995054543
 10
628.4768579144
 20
-282.4920577926
 10
627.2715286464
 20
-282.1584580695
 10
625.9328799992
 20
-282.1518564066
 10
624.4994224569
 20
-282.4724427217
 10
623.0123939833
 20
-283.1109943303
 10
621.5145736801
 20
-284.049141265
 10
620.0490511104
 20
-285.2598947467
 10
618.6579866901
 20
-286.7084236022
 10
617.38139881
 20
-288.3530562936
 10
616.2560125791
 20
-290.1464797327
 10
615.3142033103
 20
-292.0371003925
 10
614.5830651415
 20
-293.9705285588
 10
614.0836315866
 20
-295.8911430235
 10
613.8302704398
 20
-297.7436912053
 10
613.8302704398
 20
-299.4748786659
 10
614.0836315866
 20
-301.034902294
 10
614.5830651415
 20
-302.3788830502
 10
615.3142033103
 20
-303.4681570552
 10
616.0692537725
 20
-304.1470760858
  0
LWPOLYLINE
  5
1C6
330
1F
100
AcDbEntity
  8
0
  6
Continuous
 62
     1
370
    25
100
AcDbPolyline
 90
       20
 70
   128
 43
0.0
 10
573.0077234424
 20
-379.4848273908
 10
572.5978260768
 20
-379.277379729
 10
571.3924968088
 20
-378.943780006
 10
570.0538481615
 20
-378.9371783431
 10
568.6203906193
 20
-379.2577646582
 10
567.1333621457
 20
-379.8963162667
 10
565.6355418425
 20
-380.8344632015
 10
564.1700192727
 20
-382.0452166832
 10
562.7789548525
 20
-383.4937455387
 10
561.5023669724
 20
-385.1383782301
 10
560.3769807415
 20
-386.9318016692
 10
559.4351714727
 20
-388.8224223289
 10
558.7040333039
 20
-390.7558504953
 10
558.204599749
 20
-392.67646496
 10
557.9512386021
 20
-394.5290131418
 10
557.9512386021
 20
-396.2602006023
 10
558.204599749
 20
-397.8202242305
 10
558.7040333039
 20
-399.1642049867
 10
559.4351714727
 20
-400.2534789917
 10
560.1902219349
 20
-400.9323980223
  0
ENDSEC
  0
SECTION
  2
OBJECTS
  0
DICTIONARY
  5
C
330
0
100
AcDbDictionary
281
     1
  3
ACAD_GROUP
350
D
  3
ACAD_LAYOUT
350
1A
  3
ACAD_MLINESTYLE
350
17
  3
ACAD_PLOTSETTINGS
350
19
  3
ACAD_PLOTSTYLENAME
350
E
  3
ACAD_SCALELIST
350
47
  3
DWGPROPS
350
1C7
  0
DICTIONARY
  5
D
102
{ACAD_REACTORS
330
C
102
}
330
C
100
AcDbDictionary
281
     1
  0
DICTIONARY
  5
1A
102
{ACAD_REACTORS
330
C
102
}
330
C
100
AcDbDictionary
281
     1
  3
Layout1
350
1E
  3
Layout2
350
26
  3
Model
350
22
  0
DICTIONARY
  5
17
102
{ACAD_REACTORS
330
C
102
}
330
C
100
AcDbDictionary
281
     1
  3
Standard
350
18
  0
DICTIONARY
  5
19
102
{ACAD_REACTORS
330
C
102
}
330
C
100
AcDbDictionary
281
     1
  0
ACDBDICTIONARYWDFLT
  5
E
102
{ACAD_REACTORS
330
C
102
}
330
C
100
AcDbDictionary
281
     1
  3
Normal
350
F
100
AcDbDictionaryWithDefault
340
F
  0
DICTIONARY
  5
47
102
{ACAD_REACTORS
330
C
102
}
330
C
100
AcDbDictionary
281
     1
  3
A0
350
48
  3
A1
350
49
  3
A2
350
4A
  3
A3
350
4B
  3
A4
350
4C
  3
A5
350
4D
  3
A6
350
4E
  3
A7
350
4F
  3
A8
350
50
  3
A9
350
51
  3
B0
350
52
  3
B1
350
53
  3
B2
350
54
  3
B3
350
55
  3
B4
350
56
  3
B5
350
57
  3
B6
350
58
  3
B7
350
59
  3
B8
350
5A
  3
B9
350
5B
  3
C0
350
5C
  3
C1
350
5D
  3
C2
350
5E
  3
C3
350
5F
  3
C4
350
60
  3
C5
350
61
  3
C6
350
62
  3
C7
350
63
  3
C8
350
64
  3
C9
350
65
  3
D0
350
66
  3
D1
350
67
  3
D2
350
68
  0
XRECORD
  5
1C7
102
{ACAD_REACTORS
330
C
102
}
330
C
100
AcDbXrecord
280
     1
  1
DWGPROPS COOKIE
  2

  3

  4

  6

  7

  8
b.kav
  9

300
=
301
=
302
=
303
=
304
=
305
=
306
=
307
=
308
=
309
=
 40
0.0
 41
2459741.46373853
 42
2459741.463740856
  1

 90
        0
  0
LAYOUT
  5
1E
102
{ACAD_REACTORS
330
1A
102
}
330
1A
100
AcDbPlotSettings
  1

  2
none_device
  4

  6

 40
0.0
 41
0.0
 42
0.0
 43
0.0
 44
0.0
 45
0.0
 46
0.0
 47
0.0
 48
0.0
 49
0.0
140
0.0
141
0.0
142
1.0
143
1.0
 70
   688
 72
     1
 73
     0
 74
     5
  7

 75
    16
147
1.0
148
0.0
149
0.0
100
AcDbLayout
  1
Layout1
 70
     1
 71
     1
 10
0.0
 20
0.0
 11
420.0
 21
297.0
 12
0.0
 22
0.0
 32
0.0
 14
1.0000000000E+20
 24
1.0000000000E+20
 34
1.0000000000E+20
 15
-1.0000000000E+20
 25
-1.0000000000E+20
 35
-1.0000000000E+20
146
0.0
 13
0.0
 23
0.0
 33
0.0
 16
1.0
 26
0.0
 36
0.0
 17
0.0
 27
1.0
 37
0.0
 76
     0
330
1B
  0
LAYOUT
  5
26
102
{ACAD_REACTORS
330
1A
102
}
330
1A
100
AcDbPlotSettings
  1

  2
none_device
  4

  6

 40
0.0
 41
0.0
 42
0.0
 43
0.0
 44
0.0
 45
0.0
 46
0.0
 47
0.0
 48
0.0
 49
0.0
140
0.0
141
0.0
142
1.0
143
1.0
 70
   688
 72
     1
 73
     0
 74
     5
  7

 75
    16
147
1.0
148
0.0
149
0.0
100
AcDbLayout
  1
Layout2
 70
     1
 71
     2
 10
0.0
 20
0.0
 11
0.0
 21
0.0
 12
0.0
 22
0.0
 32
0.0
 14
0.0
 24
0.0
 34
0.0
 15
0.0
 25
0.0
 35
0.0
146
0.0
 13
0.0
 23
0.0
 33
0.0
 16
1.0
 26
0.0
 36
0.0
 17
0.0
 27
1.0
 37
0.0
 76
     0
330
23
  0
LAYOUT
  5
22
102
{ACAD_REACTORS
330
1A
102
}
330
1A
100
AcDbPlotSettings
  1

  2
none_device
  4
Letter_(8.50_x_11.00_Inches)
  6

 40
6.35
 41
6.35
 42
6.35000508
 43
6.35000508
 44
215.9
 45
279.4
 46
0.0
 47
0.0
 48
0.0
 49
0.0
140
0.0
141
0.0
142
1.0
143
1.0
 70
  1712
 72
     1
 73
     0
 74
     0
  7

 75
     0
147
1.0
148
0.0
149
0.0
100
AcDbLayout
  1
Model
 70
     1
 71
     0
 10
0.0
 20
0.0
 11
279.4
 21
215.9
 12
0.0
 22
0.0
 32
0.0
 14
0.0
 24
0.0
 34
0.0
 15
279.4
 25
215.9
 35
0.0
146
0.0
 13
0.0
 23
0.0
 33
0.0
 16
1.0
 26
0.0
 36
0.0
 17
0.0
 27
1.0
 37
0.0
 76
     0
330
1F
331
29
  0
MLINESTYLE
  5
18
102
{ACAD_REACTORS
330
17
102
}
330
17
100
AcDbMlineStyle
  2
Standard
 70
     0
  3

 62
   256
 51
90.0
 52
90.0
 71
     2
 49
0.5
 62
   256
  6
BYLAYER
 49
-0.5
 62
   256
  6
BYLAYER
  0
ACDBPLACEHOLDER
  5
F
102
{ACAD_REACTORS
330
E
102
}
330
E
  0
SCALE
  5
48
102
{ACAD_REACTORS
330
47
102
}
330
47
100
AcDbScale
 70
     0
300
1:1
140
1.0
141
1.0
290
     1
  0
SCALE
  5
49
102
{ACAD_REACTORS
330
47
102
}
330
47
100
AcDbScale
 70
     0
300
1:2
140
1.0
141
2.0
290
     0
  0
SCALE
  5
4A
102
{ACAD_REACTORS
330
47
102
}
330
47
100
AcDbScale
 70
     0
300
1:4
140
1.0
141
4.0
290
     0
  0
SCALE
  5
4B
102
{ACAD_REACTORS
330
47
102
}
330
47
100
AcDbScale
 70
     0
300
1:5
140
1.0
141
5.0
290
     0
  0
SCALE
  5
4C
102
{ACAD_REACTORS
330
47
102
}
330
47
100
AcDbScale
 70
     0
300
1:8
140
1.0
141
8.0
290
     0
  0
SCALE
  5
4D
102
{ACAD_REACTORS
330
47
102
}
330
47
100
AcDbScale
 70
     0
300
1:10
140
1.0
141
10.0
290
     0
  0
SCALE
  5
4E
102
{ACAD_REACTORS
330
47
102
}
330
47
100
AcDbScale
 70
     0
300
1:16
140
1.0
141
16.0
290
     0
  0
SCALE
  5
4F
102
{ACAD_REACTORS
330
47
102
}
330
47
100
AcDbScale
 70
     0
300
1:20
140
1.0
141
20.0
290
     0
  0
SCALE
  5
50
102
{ACAD_REACTORS
330
47
102
}
330
47
100
AcDbScale
 70
     0
300
1:30
140
1.0
141
30.0
290
     0
  0
SCALE
  5
51
102
{ACAD_REACTORS
330
47
102
}
330
47
100
AcDbScale
 70
     0
300
1:40
140
1.0
141
40.0
290
     0
  0
SCALE
  5
52
102
{ACAD_REACTORS
330
47
102
}
330
47
100
AcDbScale
 70
     0
300
1:50
140
1.0
141
50.0
290
     0
  0
SCALE
  5
53
102
{ACAD_REACTORS
330
47
102
}
330
47
100
AcDbScale
 70
     0
300
1:100
140
1.0
141
100.0
290
     0
  0
SCALE
  5
54
102
{ACAD_REACTORS
330
47
102
}
330
47
100
AcDbScale
 70
     0
300
2:1
140
2.0
141
1.0
290
     0
  0
SCALE
  5
55
102
{ACAD_REACTORS
330
47
102
}
330
47
100
AcDbScale
 70
     0
300
4:1
140
4.0
141
1.0
290
     0
  0
SCALE
  5
56
102
{ACAD_REACTORS
330
47
102
}
330
47
100
AcDbScale
 70
     0
300
8:1
140
8.0
141
1.0
290
     0
  0
SCALE
  5
57
102
{ACAD_REACTORS
330
47
102
}
330
47
100
AcDbScale
 70
     0
300
10:1
140
10.0
141
1.0
290
     0
  0
SCALE
  5
58
102
{ACAD_REACTORS
330
47
102
}
330
47
100
AcDbScale
 70
     0
300
100:1
140
100.0
141
1.0
290
     0
  0
SCALE
  5
59
102
{ACAD_REACTORS
330
47
102
}
330
47
100
AcDbScale
 70
     0
300
1/128" = 1'-0"
140
0.0078125
141
12.0
290
     0
  0
SCALE
  5
5A
102
{ACAD_REACTORS
330
47
102
}
330
47
100
AcDbScale
 70
     0
300
1/64" = 1'-0"
140
0.015625
141
12.0
290
     0
  0
SCALE
  5
5B
102
{ACAD_REACTORS
330
47
102
}
330
47
100
AcDbScale
 70
     0
300
1/32" = 1'-0"
140
0.03125
141
12.0
290
     0
  0
SCALE
  5
5C
102
{ACAD_REACTORS
330
47
102
}
330
47
100
AcDbScale
 70
     0
300
1/16" = 1'-0"
140
0.0625
141
12.0
290
     0
  0
SCALE
  5
5D
102
{ACAD_REACTORS
330
47
102
}
330
47
100
AcDbScale
 70
     0
300
3/32" = 1'-0"
140
0.09375
141
12.0
290
     0
  0
SCALE
  5
5E
102
{ACAD_REACTORS
330
47
102
}
330
47
100
AcDbScale
 70
     0
300
1/8" = 1'-0"
140
0.125
141
12.0
290
     0
  0
SCALE
  5
5F
102
{ACAD_REACTORS
330
47
102
}
330
47
100
AcDbScale
 70
     0
300
3/16" = 1'-0"
140
0.1875
141
12.0
290
     0
  0
SCALE
  5
60
102
{ACAD_REACTORS
330
47
102
}
330
47
100
AcDbScale
 70
     0
300
1/4" = 1'-0"
140
0.25
141
12.0
290
     0
  0
SCALE
  5
61
102
{ACAD_REACTORS
330
47
102
}
330
47
100
AcDbScale
 70
     0
300
3/8" = 1'-0"
140
0.375
141
12.0
290
     0
  0
SCALE
  5
62
102
{ACAD_REACTORS
330
47
102
}
330
47
100
AcDbScale
 70
     0
300
1/2" = 1'-0"
140
0.5
141
12.0
290
     0
  0
SCALE
  5
63
102
{ACAD_REACTORS
330
47
102
}
330
47
100
AcDbScale
 70
     0
300
3/4" = 1'-0"
140
0.75
141
12.0
290
     0
  0
SCALE
  5
64
102
{ACAD_REACTORS
330
47
102
}
330
47
100
AcDbScale
 70
     0
300
1" = 1'-0"
140
1.0
141
12.0
290
     0
  0
SCALE
  5
65
102
{ACAD_REACTORS
330
47
102
}
330
47
100
AcDbScale
 70
     0
300
1-1/2" = 1'-0"
140
1.5
141
12.0
290
     0
  0
SCALE
  5
66
102
{ACAD_REACTORS
330
47
102
}
330
47
100
AcDbScale
 70
     0
300
3" = 1'-0"
140
3.0
141
12.0
290
     0
  0
SCALE
  5
67
102
{ACAD_REACTORS
330
47
102
}
330
47
100
AcDbScale
 70
     0
300
6" = 1'-0"
140
6.0
141
12.0
290
     0
  0
SCALE
  5
68
102
{ACAD_REACTORS
330
47
102
}
330
47
100
AcDbScale
 70
     0
300
1'-0" = 1'-0"
140
12.0
141
12.0
290
     0
  0
ENDSEC
  0
EOF
